Sound will begin in 5 seconds

Thorugh

Chords
01234567891011121314151617181920212223
E
B
G
D
A
E
B
0 1 2 3 4 5 6 7 8 9 10 11 12 13 14 15 16 17 18 19 20 21 22 23
(/) Slide Up  (\) Slide Down  (h) Hammer On  (p) Pull Off  (b) Bend (r) Release (v) Vibrato

Capo Fret 2

Stave 1:

E|-----------------------0-----------------------------
B|-----------0-----------------------0-----------0-----
G|-----6-----------6-----------6-----------6-----------
D|--------7-----------7-----------7-----------7--------
A|-----------------------------------------------------
E|--5-----------5-----------5-----------5--------------

Stave 2:

E|-----------------------------------------------------
B|-----------0-----------0-----------0-----------0-----
G|-----6-----------6-----------6-----------6-----------
D|--------7-----------7-----------7-----------7--------
A|--5-----------5-----------5-----------5--------------
E|-----------------------------------------------------

Stave 3:

E|-----------------------0-----------------------------
B|-----------0-----------------------0-----------0-----
G|-----6-----------6-----------6-----------6-----------
D|--------7-----------7-----------7-----------7--------
A|--9-----------9-----------9-----------9--------------
E|-----------------------------------------------------

Stave 4:

E|--0--0--0--0--------0--
B|--0--0--2--0--------0--
G|--6--6--2--2--------1--
D|--7--7--0--2--------2--
A|--x--4--2--2--------2--
E|--5--4--2--0--------0--

Stave 5:

E|--0--0--0--0--------0--
B|--0--0--0--0--------0--
G|--6--6--6--6--------6--
D|--7--7--7--7--------7--
A|--8--9--5--6--------5--
E|--x--x--x--x--------x--

http://www.guitartabcreator.com
Guitar Tab Creator is intended to store guitar tab created through the tool. It currently does not support in-line text editing. Any text you place in here will be lost. If you need to comment on your tab, please use the "Tab Notes" section located below.