Sound will begin in 5 seconds

Ingalsin Laura Solo

01234567891011121314151617181920212223
E
B
G
D
A
E
B
0 1 2 3 4 5 6 7 8 9 10 11 12 13 14 15 16 17 18 19 20 21 22 23
Song Science #1: How Pros Use 6 Chords to Write Hit Songs
(/) Slide Up  (\) Slide Down  (h) Hammer On  (p) Pull Off  (b) Bend (r) Release (v) Vibrato

Stave 1:

E|--17b19---------14--15--------------------------------15--17--15--17--15--17b19--15------
B|---------17b19----------17b19b17--15--17------15--17---------------------------------17--
G|------------------------------------------16---------------------------------------------
D|-----------------------------------------------------------------------------------------
A|-----------------------------------------------------------------------------------------
E|-----------------------------------------------------------------------------------------

Stave 2:

E|----
B|----
G|----
D|----
A|----
E|----

Stave 3:

E|--12--10--7--12--10--7--12--10--7--12--10--7--14--10--7--12--10--7--14--10--7--15--10--7--14--10--7--15--10--7--17--10--7--15--10--7--17--10--7--7--19--10--7--17--10--7--19--10--7--19v--
B|------------------------------------------------------------------------------------------------------------------------------------------------------------------------------------------
G|------------------------------------------------------------------------------------------------------------------------------------------------------------------------------------------
D|------------------------------------------------------------------------------------------------------------------------------------------------------------------------------------------
A|------------------------------------------------------------------------------------------------------------------------------------------------------------------------------------------
E|------------------------------------------------------------------------------------------------------------------------------------------------------------------------------------------

Stave 4:

E|---------------------------------------
B|--15b17--15--13--15b17--15--13--17b19--
G|---------------------------------------
D|---------------------------------------
A|---------------------------------------
E|---------------------------------------

Stave 5:

E|--19p17p15--17p15p14-----------------------------------------------------------
B|----------------------19p17p15--17p15p13---------------------------------------
G|------------------------------------------17p16p14-----------------------------
D|----------------------------------------------------17p16p14-------------------
A|--------------------------------------------------------------17--16--15--14v--
E|-------------------------------------------------------------------------------

http://www.guitartabcreator.com
Guitar Tab Creator is intended to store guitar tab created through the tool. It currently does not support in-line text editing. Any text you place in here will be lost. If you need to comment on your tab, please use the "Tab Notes" section located below.