Sound will begin in 5 seconds

Folsom Prison Blues Solo

01234567891011121314151617181920212223
E
B
G
D
A
E
B
0 1 2 3 4 5 6 7 8 9 10 11 12 13 14 15 16 17 18 19 20 21 22 23
Song Science #1: How Pros Use 6 Chords to Write Hit Songs
(/) Slide Up  (\) Slide Down  (h) Hammer On  (p) Pull Off  (b) Bend (r) Release (v) Vibrato

Stave 1:

E|-------7--10--7--10--7--|-------7--10--7--10--|-------7--10--7--10--7--|-------7--10--7--10--7--4-----|--
B|--8h9-------------------|--8h9----------------|--8h9-------------------|--8h9----------------------5--|--
G|------------------------|---------------------|------------------------|------------------------------|--
D|------------------------|---------------------|------------------------|------------------------------|--
A|------------------------|---------------------|------------------------|------------------------------|--
E|------------------------|---------------------|------------------------|------------------------------|--

Stave 2:

E|-----5--5--5--5--|-----5--5--0-----|--------7--0-----|---------9--0-----|-----0--0--0-----|--
B|-----2--2--2--2--|-----2--2-----0--|-----5--------0--|-----10-----------|-----0--0--0-----|--
G|-----2--2--2--2--|-----2--2--------|--6--------------|--9------------0--|-----1--1--1--0--|--
D|-----x--x--x--x--|-----x--x--------|-----------------|------------------|-----2--2--2-----|--
A|--0--------------|--0--------------|-----------------|------------------|-----2--2--2-----|--
E|-----------------|-----------------|-----------------|------------------|--0--0--0--0-----|--

Stave 3:

E|-----0--0--0-----|-----0--0--0-----|-----0--0--0-----|-----2--2--2--2--|-----2--2--2--2--|--
B|-----0--0--0-----|-----0--0--0-----|-----0--0--0-----|-----0--0--0--0--|-----0--0--0--0--|--
G|-----1--1--1--0--|-----1--1--1--0--|-----1--1--1--0--|-----2--2--2--2--|-----2--2--2--2--|--
D|-----2--2--2-----|-----2--2--2-----|-----2--2--2-----|-----1--1--1--1--|-----1--1--1--1--|--
A|-----2--2--2-----|-----2--2--2-----|-----2--2--2-----|--2--2--2--2--2--|--2--2--2--2--2--|--
E|--0--0--0--0-----|--0--0--0--0-----|--0--0--0--0-----|-----------------|-----------------|--

Stave 4:

E|---------------------
B|---------------------
G|---------------------
D|---------------------
A|--2--2--1--0---------
E|--------------2b3r0--

http://www.guitartabcreator.com
Guitar Tab Creator is intended to store guitar tab created through the tool. It currently does not support in-line text editing. Any text you place in here will be lost. If you need to comment on your tab, please use the "Tab Notes" section located below.