Sound will begin in 5 seconds

Border Between Dream and Reality v2

Chords
01234567891011121314151617181920212223
E
B
G
D
A
E
B
0 1 2 3 4 5 6 7 8 9 10 11 12 13 14 15 16 17 18 19 20 21 22 23
Song Science #1: How Pros Use 6 Chords to Write Hit Songs
(/) Slide Up  (\) Slide Down  (h) Hammer On  (p) Pull Off  (b) Bend (r) Release (v) Vibrato

(W|WW) Whole (H|HH) Half (Q|QQ) Quarter (E|EE) 8th (S|SS) 16th (T|TT) 32nd (X|XX) 64th

Stave 1:
t: E E E E E E E E E E E E E E E E E E S Q Q Q E E E E E E
E|--------------------|--0-----------------|--------------------|-------------|--------------------|--
B|-----------0--------|-----------0--------|-----------0--------|--0h1--0-----|-----------0--------|--
G|--------0--------0--|--------0--------0--|--------0--------0--|----------0--|--------0--------0--|--
D|-----2--------2-----|-----2--------2-----|--------------0-----|-------------|-----2--------2-----|--
A|--3-----------------|--------------------|-----2--------------|-------------|--3-----------------|--
E|--------------------|--------------------|--3-----------------|-------------|--------------------|--

Stave 2:
t: E E E E E E E E E E E E E E E E E E E E E E E E E E E E E E
E|--0-----------------|--------------------|--3-----------------|--------------------|--0-----------------
B|-----------0--------|-----------0--------|--------------0-----|-----------0--------|-----0-----------0--
G|--------0--------0--|--------0--------0--|--------0--------0--|--------0--------0--|--------0-----0-----
D|-----2--------2-----|--------------0-----|-----0-----0--------|-----2--------2-----|-----------2--------
A|--------------------|-----2--------------|--------------------|--3-----------------|--------------------
E|--------------------|--3-----------------|--------------------|--------------------|--------------------

Stave 3:
t: E E E E E E S Q Q Q E E E E E E E E E E E E E E E E E E
E|--------------------|-------------|--------------------|--0-----------------|--------------------|--
B|-----------0--------|--0h1--0-----|-----------0--------|--------------0-----|-----------0--------|--
G|--------0--------0--|----------0--|--------0--------0--|--------0--------0--|--------0--------0--|--
D|--------------0-----|-------------|-----2--------2-----|-----2-----2--------|--------------0-----|--
A|-----2--------------|-------------|--3-----------------|--------------------|-----2--------------|--
E|--3-----------------|-------------|--------------------|--------------------|--3-----------------|--

Stave 4:
t: H E E E E E E E E E E E E E E E E E E E E E E E E E E
E|-----------|-----------0--------|--3-----2--0--------|--0-----------7-----|--2--------0--------|--
B|-----0--3--|--0-----------0-----|--------3-----3-----|-----------0--------|--------3-----3-----|--
G|-----------|--------0--------0--|-----2-----------0--|--------0--------0--|-----2--------2--0--|--
D|-----------|-----2--------------|--0-----------------|--2--2--------------|--0-----------------|--
A|-----------|--3-----------------|--------------------|--------------7-----|--------------------|--
E|--3--------|--------------------|--------------------|--------------------|--------------------|--

Stave 5:
t: E E E E Q E E E E Q E E E E E E E E E E E E E E E E E E
E|-----------------|-----------------|--------------7-----|--------------------|-----------0--------|--
B|--0--------0--0--|--3-----2--2-----|--0--------0--------|--0-----------0--3--|--0-----------0-----|--
G|--------0-----0--|--------2-----2--|--------2-----------|--------0-----------|--------0--------0--|--
D|-----------------|-----2-----------|-----1--------7--1--|-----1--------1-----|-----2--------------|--
A|-----2-----------|--0--------------|--2-----------------|-----------2--------|--3-----------------|--
E|--3--------------|-----------------|--------------------|--------------------|--------------------|--

Stave 6:
t: E E E E E E E E E E E E E E E E E E E E E E Q E E E E Q
E|--3-----2--0--------|--0-----------7-----|--2--------0--------|-----------------|-----------------|--
B|--------3-----3-----|-----------0--------|--------3-----3-----|--0--------0--0--|--3-----2--2-----|--
G|-----2-----------0--|--------0--------0--|-----2--------2--0--|--------0-----0--|--------2-----2--|--
D|--0-----------------|--2--2--------------|--0-----------------|-----------------|-----2-----------|--
A|--------------------|--------------7-----|--------------------|-----2-----------|--0--------------|--
E|--------------------|--------------------|--------------------|--3--------------|-----------------|--

Stave 7:
t: E E E E E E S W E E E E E E E E E E E E E E E E E E S Q Q Q
E|--------------------|-------|--------------------|--0-----2-----3-----|--0-----------------|-------------
B|--0--------0--------|-------|-----------0--------|--0-----0-----------|-----------0--------|--0h1--0-----
G|--------2-----2-----|--2/4--|--------0--------0--|-----0--------0-----|--------0--------0--|----------0--
D|-----1-----------1--|-------|-----2--------2-----|-----------2-----0--|--------------0-----|-------------
A|--2-----------------|-------|--3-----------------|--------------------|-----2--------------|-------------
E|--------------------|-------|--------------------|--------------------|--3-----------------|-------------

http://www.guitartabcreator.com
Guitar Tab Creator is intended to store guitar tab created through the tool. It currently does not support in-line text editing. Any text you place in here will be lost. If you need to comment on your tab, please use the "Tab Notes" section located below.