Sound will begin in 5 seconds

Hümn

Chords
01234567891011121314151617181920212223
E
B
G
D
A
E
B
0 1 2 3 4 5 6 7 8 9 10 11 12 13 14 15 16 17 18 19 20 21 22 23
(/) Slide Up  (\) Slide Down  (h) Hammer On  (p) Pull Off  (b) Bend (r) Release (v) Vibrato

Stave 1:

E|-----------------5---------9---------5-----7---------5--
B|--4--1--2--4-----5--12-----10--------5--7-----10--9--5--
G|-----------1-----6--9---9--9---------6--7-----9---7--6--
D|-----------1-----7--9------11--------7--0-----11--9--7--
A|-----------0--------11-----0------------------0---7--7--
E|--------------------0-----------------------------0--5--

Stave 2:

E|--------------------------------------------------------------------7--9-------------------7---------5--
B|--------12--10--9----------------------------------10--5--2--5--10--9--10-----------10--7-----10--9--5--
G|--9-----9-------9--11--9-------6--11--9---------9--9---6--2--6--9---9--9------------9---7-----9---7--1--
D|--------9-------9------9---12--7--12--11-----------11--7--2--7--11------------------11--0-----11--9--1--
A|--7-----11-------------11------0--0---0------------0------0-----0------0---7-----7------------0------0--
E|--------0---------------------------------------0-------------------0---------9-----9-------------0-----

							http://www.guitartabcreator.com
Note:
Guitar Tab Creator is intended to store guitar tab created through the tool. It currently does not support in-line text editing. Any text you place in here will be lost. If you need to comment on your tab, please use the "Tab Notes" section located below.