Sound will begin in 5 seconds

Steve Hackett - Narnia Intro

Chords
01234567891011121314151617181920212223
E
B
G
D
A
E
B
0 1 2 3 4 5 6 7 8 9 10 11 12 13 14 15 16 17 18 19 20 21 22 23
Song Science #1: How Pros Use 6 Chords to Write Hit Songs
(/) Slide Up  (\) Slide Down  (h) Hammer On  (p) Pull Off  (b) Bend (r) Release (v) Vibrato

Stave 1:

E |--------------0-----------|--------------0-----------|--------------0-----------|--------------0-----------
B |-----------0-----0--------|-----------0-----0--------|-----------0-----0--------|-----------0-----0--------
Ab|--------7-----------7-----|--------7-----------7-----|--------7-----------7-----|--------7-----------7-----
E |-----9-----------------9--|-----9-----------------9--|-----9-----------------9--|-----9-----------------9--
B |--0-----------------------|--0-----------------------|--0-----------------------|--0-----------------------
E |--------------------------|--------------------------|--------------------------|--------------------------

Stave 2:

E |--------------------------|-----------------------0--|-----------------------4--|-----------0--------------
B |-----------0-----------0--|-----------0--------------|-----------0--------------|-----------------------0--
Ab|-----0-----------0--------|-----0-----------0--------|-----0-----------0--------|-----0-----------0--------
E |--------5-----------5-----|--------5-----------5-----|--------5-----------5-----|--------5-----------5-----
B |--------------0-----------|--------------0-----------|--------------0-----------|--------------------------
E |--0-----------------------|--0-----------------------|--0-----------------------|--0-----------0-----------

Stave 3:

E |--------------------------|--------------------------|--------------------------|--
B |-----------0-----------0--|-----------0-----------0--|-----------0-----------0--|--
Ab|-----0-----------5--------|-----0-----------5--------|-----0-----------5--------|--
E |--------0-----------0-----|--------0-----------0-----|--------0-----------0-----|--
B |--------------------------|--------------------------|--------------------------|--
E |--4-----------5-----------|--4-----------5-----------|--4-----------5-----------|--

Stave 4:

E |--------------0-----------|--------------0-----------|--------------0-----------|--------------0-----------
B |-----------0-----0--------|-----------0-----0--------|-----------0-----0--------|-----------0-----0--------
Ab|--------7-----------7-----|--------7-----------7-----|--------7-----------7-----|--------7-----------7-----
E |-----9-----------------9--|-----9-----------------9--|-----9-----------------9--|-----9-----------------9--
B |--0-----------------------|--0-----------------------|--0-----------------------|--0-----------------------
E |--------------------------|--------------------------|--------------------------|--------------------------

Stave 5:

E |--------------------------|-----------------------0--|-----------------------4--|-----------0--------------
B |-----------0-----------0--|-----------0--------------|-----------0--------------|-----------------------0--
Ab|-----0-----------0--------|-----0-----------0--------|-----0-----------0--------|-----0-----------0--------
E |--------5-----------5-----|--------5-----------5-----|--------5-----------5-----|--------5-----------5-----
B |--------------0-----------|--------------0-----------|--------------0-----------|--------------------------
E |--0-----------------------|--0-----------------------|--0-----------------------|--0-----------0-----------

Stave 6:

E |--------------------------|--------------------------|--------------------------|--
B |-----------0-----------0--|-----------0-----------0--|-----------0-----------0--|--
Ab|-----0-----------5--------|-----0-----------5--------|-----0-----------5--------|--
E |--------0-----------0-----|--------0-----------0-----|--------0-----------0-----|--
B |--------------------------|--------------------------|--------------------------|--
E |--4-----------5-----------|--4-----------5-----------|--4-----------5-----------|--

Stave 7:

E |--------------0-----------|--------------0-----------|-----------------0---0---|-----------------0---0---|--
B |-----------0-----0--------|-----------0-----0--------|-----------------0---0---|-----------------0---0---|--
Ab|--------7-----------7-----|--------7-----------7-----|---------10------12--10--|---------10------12--10--|--
E |-----9-----------------9--|-----9-----------------9--|-----11------11--12--11--|-----11------11--12--11--|--
B |--0-----------------------|--0-----------------------|--0--------------0---0---|--0--------------0---0---|--
E |--------------------------|--------------------------|-------------------------|-------------------------|--

http://www.guitartabcreator.com
Guitar Tab Creator is intended to store guitar tab created through the tool. It currently does not support in-line text editing. Any text you place in here will be lost. If you need to comment on your tab, please use the "Tab Notes" section located below.