Sound will begin in 5 seconds

Breathe

01234567891011121314151617181920212223
E
B
G
D
A
E
B
0 1 2 3 4 5 6 7 8 9 10 11 12 13 14 15 16 17 18 19 20 21 22 23
Song Science #1: How Pros Use 6 Chords to Write Hit Songs
(/) Slide Up  (\) Slide Down  (h) Hammer On  (p) Pull Off  (b) Bend (r) Release (v) Vibrato

Stave 1:

E|------------------------------------------------------------------------------------------------
B|------------------------------------------------------------------------------------------------
G|----------------------------7-------7h9--9--9p7-----7---------7---------------------------------
D|------------5--7--5----7/9-------9---------------9-------7/9-----9/7--5------------5--5h7--5----
A|--3----5/7-----------------------------------------------------------------5--5h7---------------
E|------------------------------------------------------------------------------------------------

Stave 2:

E|--------------------------
B|--------------------------
G|-----------------------7--
D|--5h7p5-------------------
A|---------7p5h7------------
E|------------------0-------

Stave 3:

E|--
B|--
G|--
D|--
A|--
E|--

Stave 4:

E|---------------------------------------------------------------------------------------------
B|---------------------------------------------------------------------------------------------
G|----------------------------7-------7h9--9--9p7-----7----7h9p7-------------------------------
D|------------5--7--5----7/9-------9---------------9--------------9/7--5------------5--7--7/9--
A|--3----5/7----------------------------------------------------------------5--5h7-------------
E|---------------------------------------------------------------------------------------------

Stave 5:

E|----------------------------------------
B|----------------------------------------
G|----------------------------------7--9--
D|--9--9--9/7--5-------------5h7/9--------
A|----------------7--5--7-----------------
E|----------------------------------------

Stave 6:

E|--
B|--
G|--
D|--
A|--
E|--

Stave 7:

E|----------------------------------------------------------------------------------------------------
B|----------------------------------------------------------------------------------------------------
G|----------------------------------------------------------------------------------------------------
D|--------------------------5---------------5-----5----5h7--5-----5--5----7/9--7--5--7-----5--5-------
A|----------0--2--3----5/7-----7--5----5h7-----7---------------7------------------------7--------7----
E|--0----3--------------------------------------------------------------------------------------------

Stave 8:

E|------------------------------------------------------------------------------------------------------
B|---------------------------------------------10--8--7--------------------------------10b12r10--8--10--
G|-------7--7-----7-------7--7-----7--7-----7------------9p7-----7--9----7--7h9--7--7-------------------
D|--7/9--------9-------9--------9--------9--------------------9-----------------------------------------
A|------------------------------------------------------------------------------------------------------
E|------------------------------------------------------------------------------------------------------

Stave 9:

E|-----10-------------10-----------------------------------------------------------------------------------
B|--8------8--8----8------------10------------15--------------------------------15------15h17--15------15--
G|------------------------9/11------11--12--------12----12--12h14--12--14/16--------16-------------16------
D|---------------------------------------------------------------------------------------------------------
A|---------------------------------------------------------------------------------------------------------
E|---------------------------------------------------------------------------------------------------------

Stave 10:

E|-----------------------------------------------------------------------
B|------15h17--15----17b19r17--15----------------------------------------
G|--16-----------------------------16--14--12----------------------------
D|---------------------------------------------14--12--------------------
A|-----------------------------------------------------14--10--9--10--9--
E|-----------------------------------------------------------------------

http://www.guitartabcreator.com
Guitar Tab Creator is intended to store guitar tab created through the tool. It currently does not support in-line text editing. Any text you place in here will be lost. If you need to comment on your tab, please use the "Tab Notes" section located below.