Sound will begin in 5 seconds

Ain't Misbehavin

01234567891011121314151617181920212223
E
B
G
D
A
E
B
0 1 2 3 4 5 6 7 8 9 10 11 12 13 14 15 16 17 18 19 20 21 22 23
Song Science #1: How Pros Use 6 Chords to Write Hit Songs
(/) Slide Up  (\) Slide Down  (h) Hammer On  (p) Pull Off  (b) Bend (r) Release (v) Vibrato

Stave 1:

E|-----7-----3--------------------------------------------------------0-----------------3--3--5--
B|--------8-----5----------3-----3------------------3--3--------0-----2--------3--5--3--3--3--5--
G|-----------------5--2/4--------5-----0h2p0-----0--4--4-----2--2--2--------------2-----4--4--5--
D|-------------------------------4------------4-----3--3--------------2--2-----------------------
A|--0-------------------------0--5------------------------0-----------1-----2-----2-----------3--
E|----------------------------------3---------------4--4--------------------------------3--3-----

Stave 2:

E|--3------------------------------------------------------0-----------------
B|-----5-----4---------------------------3--3--------0-----3--3--0--3--1--3--
G|--------5--4--3--2--1-----0h2p0-----0--1--1-----2--2--2--5--5--0--4--2--5--
D|---------------------------------4-----2--2--------------4--4-----3--2--4--
A|-----------3---------------------------2--2--0-----------5--5-----------5--
E|-----------------------3---------------------------------0-----3--4--------

Stave 3:

E|-----3-----3-----3-----3--------------2-----3-----3-----------3--0--3--0--------3-----3--------
B|--3-----2-----1-----0-----------0-----0-----5--5--5--5--------1-----1-----------5--5--5--5-----
G|-----------------------------3-----0--2-----4-----4-----------0-----0-----------3-----3--------
D|--3-----2-----1-----0-----------------1-----5-----------5-----2-----2-----------3-----3--------
A|--------------------------------------2--------------------3--------------3--4--------------4--
E|--------------------------3--------3-----0--------0--------------------------------------------

Stave 4:

E|-----------------------5--5--5--5-----5--------------------------------------
B|-----8-----8-----------7--7--7--8--8--7--6--5--------------3--3--3--3--------
G|-----7-----7-----------7--5--5--7-----6--------7--7--7--7--5-----5--------0--
D|-----6-----6--6-----0-----------------5-----5--7-----6-----5-----4-----------
A|--7-----7--------7--------6-----7--------------------------------------------
E|-----------------------------------------------7-----6-----5-----4-----3-----

http://www.guitartabcreator.com
Guitar Tab Creator is intended to store guitar tab created through the tool. It currently does not support in-line text editing. Any text you place in here will be lost. If you need to comment on your tab, please use the "Tab Notes" section located below.