Sound will begin in 5 seconds

space and spectrume

01234567891011121314151617181920212223
E
B
G
D
A
E
B
0 1 2 3 4 5 6 7 8 9 10 11 12 13 14 15 16 17 18 19 20 21 22 23
Song Science #1: How Pros Use 6 Chords to Write Hit Songs
(/) Slide Up  (\) Slide Down  (h) Hammer On  (p) Pull Off  (b) Bend (r) Release (v) Vibrato

Stave 1:

E|-------------------------------------------------------------------------|-
B|-------------------------------------------------------------------------|-
G|---------0-----------0-----------0-----------------0---------0-----------|-
D|-------9---9-------9---9-------9---9-------9-----7---7\4---4---4---------|-
A|-----7-------7---7-------7---7-------7---7---7\5---------2-------3-------|-
E|-0-0-----------8-----------0-----------8---0-----------------------3-2-0-|-

Stave 2:

E|------------------------------------------------------------------------------|-
B|------------------------------------------------------------------------------|-
G|-----4-0-----------0---------0---9----------0-------------------------------0-|-
D|---4-----4/5---5/7---------9---9-------10p9---------9\7---7\4-----4-----------|-
A|-2-----------3-------5/7-7-----------7--------7---7-----5-------2---2---2h3---|-
E|-----------------------------------8------------8-------------3-------0-------|-

Stave 3:

E|-----------------|-
B|-----------------|-
G|---------------0-|-
D|-----4-----4\2---|-
A|---2---2---------|-
E|-3-------0-------|-

Stave 4:

E|------------------------------------|-
B|------------------------------------|-
G|----------------------------0-------|-
D|----9\7---7\4-----4-------4---4-----|-
A|--7-----5-------2---2---2-------2---|-
E|--------------3-------0-----------0-|-

http://www.guitartabcreator.com
Guitar Tab Creator is intended to store guitar tab created through the tool. It currently does not support in-line text editing. Any text you place in here will be lost. If you need to comment on your tab, please use the "Tab Notes" section located below.