Sound will begin in 5 seconds

Zepploid (DADGAD)

01234567891011121314151617181920212223
E
B
G
D
A
E
B
0 1 2 3 4 5 6 7 8 9 10 11 12 13 14 15 16 17 18 19 20 21 22 23
Song Science #1: How Pros Use 6 Chords to Write Hit Songs
(/) Slide Up  (\) Slide Down  (h) Hammer On  (p) Pull Off  (b) Bend (r) Release (v) Vibrato

Stave 1:

E|--7--4--------------
B|--7--4--------7-----
G|--7-----------------
D|--------7--6-----6--
A|--------7--7--7--7--
E|--------7--7--7--7--

Stave 2:

E|-----------
B|--5--7-----
G|--5--7-----
D|-----------
A|--5--------
E|-----------

Stave 3:

E|--0--5-----5--
B|--0-----7-----
G|--0-----------
D|--1--5-----5--
A|--0--5--7--5--
E|--0-----7-----

Stave 4:

E|-----5--5--7--12--------------5--------------5-----------------
B|--------5--7--12-----------7-----7--------------7--------------
G|--------5--7--12--------7-----------7--------------7-----------
D|--7--5---------------0--------------------------------0--------
A|--7--5---------------------------------0-----------------0-----
E|--7---------------0-----------------------0-----------------0--

http://www.guitartabcreator.com
Guitar Tab Creator is intended to store guitar tab created through the tool. It currently does not support in-line text editing. Any text you place in here will be lost. If you need to comment on your tab, please use the "Tab Notes" section located below.