Sound will begin in 5 seconds

Don't Treat Me Bad - Firehouse

01234567891011121314151617181920212223
E
B
G
D
A
E
B
0 1 2 3 4 5 6 7 8 9 10 11 12 13 14 15 16 17 18 19 20 21 22 23
Song Science #1: How Pros Use 6 Chords to Write Hit Songs
(/) Slide Up  (\) Slide Down  (h) Hammer On  (p) Pull Off  (b) Bend (r) Release (v) Vibrato

Stave 1:

E|--5----0----0--0----0--
B|--5----5----3--5----0--
G|--6----4----2--4----1--
D|--7----6----4--6----2--
A|--------------------2--
E|--------------------0--

Stave 2:

E|--2--4--2--0--
B|--2--5--3--0--
G|--2--4--2--1--
D|--4--6--0--2--
A|--4--4-----2--
E|--2--------0--

Stave 3:

E|--2--0--4--2--0--
B|--3--0--5--2--0--
G|--2--1--4--2--1--
D|--0--2--6--4--2--
A|-----2--4--4--2--
E|-----0-----2--0--

Stave 4:

E|--2------------------------------12/5----------2--2----------------
B|--3--------------------------------------2--2--3--3--7--9--9-------
G|--2------------------------9--9----------2--2--2--2--7--9--9-------
D|--4------------------------9--9----------2--2--4--4--7--9--9-------
A|--2--2-----------10h11-------------------0--0--2--2--5--7--7-------
E|-----0--0--0--0-----------------------------------------------0h2--

Stave 5:

E|-----------2--2--2--2--0--0\0-0--
B|-----------3--3--3--3--0--0-0-0--
G|--2--2--2--2--2--2--2--1--4-6\4--
D|--2--2--2--4--0--0--0--2---------
A|--2--2--2--2-----------2---------
E|--0--0--0--------------0---------

http://www.guitartabcreator.com
Guitar Tab Creator is intended to store guitar tab created through the tool. It currently does not support in-line text editing. Any text you place in here will be lost. If you need to comment on your tab, please use the "Tab Notes" section located below.