Sound will begin in 5 seconds

Believer - Ozzy/randy Rhoades

01234567891011121314151617181920212223
E
B
G
D
A
E
B
0 1 2 3 4 5 6 7 8 9 10 11 12 13 14 15 16 17 18 19 20 21 22 23
Song Science #1: How Pros Use 6 Chords to Write Hit Songs
(/) Slide Up  (\) Slide Down  (h) Hammer On  (p) Pull Off  (b) Bend (r) Release (v) Vibrato

Stave 1:

E|------------------12--11--12----7h10p7h10p7h10p7h10p7h10b12----------
B|---------------------------------------------------------------------
G|--------3v--p0-------------------------------------------------------
D|-----2---------------------------------------------------------------
A|--1------------------------------------------------------------------
E|---------------------------------------------------------------15/3--

Stave 2:

E|----------------0-----------------------------------------
B|----------------------------------------------------------
G|-------------2----------------------------11\12-----------
D|-------5--4--------2-----5--4-------4-----11-12--------7--
A|--0h2-----------------3--------4\6---------------------7--
E|---------------------------------------0---------0--0-----

Stave 3:

E|---------------------------------0----------------------------0--
B|---------------------------------0-------------------------3-----
G|------------------------------7----------------------------2-----
D|--------------------4h5p4-----------------------------3\4--0-----
A|--2--------2---------------7--------2--------2--------1-2--------
E|--0--0--0--0--0--0------------------0--0--0--0--0--0-------------

http://www.guitartabcreator.com
Guitar Tab Creator is intended to store guitar tab created through the tool. It currently does not support in-line text editing. Any text you place in here will be lost. If you need to comment on your tab, please use the "Tab Notes" section located below.