Sound will begin in 5 seconds

Anastasia - Slash

01234567891011121314151617181920212223
E
B
G
D
A
E
B
0 1 2 3 4 5 6 7 8 9 10 11 12 13 14 15 16 17 18 19 20 21 22 23
Song Science #1: How Pros Use 6 Chords to Write Hit Songs
(/) Slide Up  (\) Slide Down  (h) Hammer On  (p) Pull Off  (b) Bend (r) Release (v) Vibrato

Stave 1:

E|------13--12--13--10--13--12--13------13--12--13--10--13--12--13--
B|--10------------------------------10------------------------------
G|------------------------------------------------------------------
D|------------------------------------------------------------------
A|------------------------------------------------------------------
E|------------------------------------------------------------------

Stave 2:

E|------13--12--13--10--13--12--13------13--12--13--10--13--12--13--
B|--11------------------------------11------------------------------
G|------------------------------------------------------------------
D|------------------------------------------------------------------
A|------------------------------------------------------------------
E|------------------------------------------------------------------

Stave 3:

E|------15--13--15--12--15--13--15------15--13--15--12--15--13--15--
B|--12------------------------------12------------------------------
G|------------------------------------------------------------------
D|------------------------------------------------------------------
A|------------------------------------------------------------------
E|------------------------------------------------------------------

Stave 4:

E|------15--12--15--13--15--12--15------15--12--15--13--15--12--15--
B|--13------------------------------13------------------------------
G|------------------------------------------------------------------
D|------------------------------------------------------------------
A|------------------------------------------------------------------
E|------------------------------------------------------------------

Stave 5:

E|------17--15--17--12--17--15--17------17--15--17--12--17--15--17--
B|--14------------------------------14------------------------------
G|------------------------------------------------------------------
D|------------------------------------------------------------------
A|------------------------------------------------------------------
E|------------------------------------------------------------------

Stave 6:

E|------17--13--17--12--17--13--17------17--13--17--12--17--13--17--------------
B|--15------------------------------15------------------------------------------
G|------------------------------------------------------------------------------
D|------------------------------------------------------------------------------
A|------------------------------------------------------------------------------
E|------------------------------------------------------------------------------

Stave 7:

E|------18--17--18------17--15--17------15--14--15------15--14--15--
B|--15--------------14--------------13--------------12--------------
G|------------------------------------------------------------------
D|------------------------------------------------------------------
A|------------------------------------------------------------------
E|------------------------------------------------------------------

Stave 8:

E|------13--12--13------13--12--13-----12--11--12-----12--11--12--
B|--11--------------10--------------9--------------9--------------
G|----------------------------------------------------------------
D|----------------------------------------------------------------
A|----------------------------------------------------------------
E|----------------------------------------------------------------

Stave 9:

E|--------------------------------------------------------------
B|--10--13--12--13--9--12--10--12--8--12--10--12-----10--9--10--
G|------------------------------------------------7-------------
D|--------------------------------------------------------------
A|--------------------------------------------------------------
E|--------------------------------------------------------------

Stave 10:

E|----------------------------------------
B|--6--10--8--10-----8--7--8----7b9r7--5--
G|----------------5-----------------------
D|----------------------------------------
A|----------------------------------------
E|----------------------------------------

http://www.guitartabcreator.com
Guitar Tab Creator is intended to store guitar tab created through the tool. It currently does not support in-line text editing. Any text you place in here will be lost. If you need to comment on your tab, please use the "Tab Notes" section located below.