Sound will begin in 5 seconds

Crossing Field

01234567891011121314151617181920212223
E
B
G
D
A
E
B
0 1 2 3 4 5 6 7 8 9 10 11 12 13 14 15 16 17 18 19 20 21 22 23
Song Science #1: How Pros Use 6 Chords to Write Hit Songs
(/) Slide Up  (\) Slide Down  (h) Hammer On  (p) Pull Off  (b) Bend (r) Release (v) Vibrato

Stave 1:

E|--------------------------------------------------------------------------
B|--6p5--6--6\8---------5--6p5--6--6\8----------------13v-------------------
G|---------------7v--5------------------7--7h9\10--9-------10v--9v--7v--5v--
D|--------------------------------------------------------------------------
A|--------------------------------------------------------------------------
E|--------------------------------------------------------------------------

Stave 2:

E|-----------------------------------------------------------------------------
B|--6p5--6--6\8---------5--6p5--6--8--8\13--13---------------------------------
G|---------------7v--5--------------------------10--10--12--10v--9--10--10\12--
D|-----------------------------------------------------------------------------
A|-----------------------------------------------------------------------------
E|-----------------------------------------------------------------------------

Stave 3:

E|--------------------------------------------------------------------------
B|--7\10--6--8--6/5--------4\6-----4\6--------------------------------------
G|-------------------5--7-------4-------12--10--12--14--15--15--15--12--10--
D|--------------------------------------x---x---x---x---x---x---x---x---x---
A|--------------------------------------10--8---10--12--13--13--13--10--8---
E|--------------------------------------------------------------------------

Stave 4:

E|------------------------------------------------------------------------
B|--------------------------8--8--8--8\10--6--6b8---------10--13v---------
G|--12--10--12--17--15--15-------------------------10h12-----------10--9--
D|--x---x---x---x---x---x-------------------------------------------------
A|--10--8---10--15--13--13------------------------------------------------
E|------------------------------------------------------------------------

Stave 5:

E|-------------------------------------------------------------------------------
B|---------15--------------------------------------------------------------------
G|--17b19------17--14--14--14b15--12--12--14b15--14--12--14--12--14--12--14--12--
D|-----------------------------------------------12--12--12--12--12--12--12--12--
A|-------------------------------------------------------------------------------
E|-------------------------------------------------------------------------------

Stave 6:

E|---------------------------
B|--8\10--11--10--13b15--10--
G|---------------------------
D|---------------------------
A|---------------------------
E|---------------------------

http://www.guitartabcreator.com
Guitar Tab Creator is intended to store guitar tab created through the tool. It currently does not support in-line text editing. Any text you place in here will be lost. If you need to comment on your tab, please use the "Tab Notes" section located below.