Sound will begin in 5 seconds

Right Of Way - Lead Guitar

01234567891011121314151617181920212223
E
B
G
D
A
E
B
0 1 2 3 4 5 6 7 8 9 10 11 12 13 14 15 16 17 18 19 20 21 22 23
Song Science #1: How Pros Use 6 Chords to Write Hit Songs
(/) Slide Up  (\) Slide Down  (h) Hammer On  (p) Pull Off  (b) Bend (r) Release (v) Vibrato

Stave 1:

E|---------------------------------------------------------------------
B|---------------------------------------------------------------------
G|---------------------------------------------------------------------
D|-----2---2---3-2-----10---10---12-10-----5---5---7-5-----------------
A|-0-0---0---0-----8-8----8----8-------3-3---3---3---------5---5---7-3-
E|-----------------------------------------------------3-3---3---3-----

Stave 2:

E|---------------------------------------------------------------------
B|---------------------------------------------------------------------
G|---------------------------------------------------------------------
D|-----2---2---3-2-----10---10---12-10-----5---5---7-5-----------------
A|-0-0---0---0-----8-8----8----8-------3-3---3---3---------5---5---7-3-
E|-----------------------------------------------------3-3---3---3-----

Stave 3:

E|---------------------------------------------------------------------
B|---------------------------------------------------------------------
G|---------------------------------------------------------------------
D|-----2---2---3-2-----10---10---12-10-----5---5---7-5-----------------
A|-0-0---0---0-----8-8----8----8-------3-3---3---3---------5---5---7-3-
E|-----------------------------------------------------3-3---3---3-----

Stave 4:

E|---------------------------------------------------------------------
B|---------------------------------------------------------------------
G|---------------------------------------------------------------------
D|-----2---2---3-2-----10---10---12-10-----5---5---7-5-----------------
A|-0-0---0---0-----8-8----8----8-------3-3---3---3---------5---5---7-3-
E|-----------------------------------------------------3-3---3---3-----

Stave 5:

E|---------------------------------------------------------------------
B|---------------------------------------------------------------------
G|---------------------------------------------------------------------
D|-----2---2---3-2-----10---10---12-10-----5---5---7-5-----------------
A|-0-0---0---0-----8-8----8----8-------3-3---3---3---------5---5---7-3-
E|-----------------------------------------------------3-3---3---3-----

Stave 6:

E|---------------------------------------------------------------------
B|---------------------------------------------------------------------
G|---------------------------------------------------------------------
D|-----2---2---3-2-----10---10---12-10-----5---5---7-5-----------------
A|-0-0---0---0-----8-8----8----8-------3-3---3---3---------5---5---7-3-
E|-----------------------------------------------------3-3---3---3-----

Stave 7:

E|---------------------------------------------------------------------
B|---------------------------------------------------------------------
G|---------------------------------------------------------------------
D|-----2---2---3-2-----10---10---12-10-----5---5---7-5-----------------
A|-0-0---0---0-----8-8----8----8-------3-3---3---3---------5---5---7-3-
E|-----------------------------------------------------3-3---3---3-----

Stave 8:

E|---------------------------------------------------------------------
B|---------------------------------------------------------------------
G|---------------------------------------------------------------------
D|-----2---2---3-2-----10---10---12-10-----5---5---7-5-----------------
A|-0-0---0---0-----8-8----8----8-------3-3---3---3---------5---5---7-3-
E|-----------------------------------------------------3-3---3---3-----

Stave 9:

E|-------------------------------------------------------------
B|-------------------------------------------------------------
G|-2---2-2-2--2--10---10-10-10--10--5---5-5-5--5---------------
D|-2---2-2-2--2--10---10-10-10--10--5---5-5-5--5--5---5-5-5--5-
A|-0---0-0-0--0--8----8--8--8---8---3---3-3-3--3--5---5-5-5--5-
E|------------------------------------------------3---3-3-3--3-

Stave 10:

E|-------------------------------------------------------------
B|-------------------------------------------------------------
G|-2---2-2-2--2--10---10-10-10--10--5---5-5-5--5---------------
D|-2---2-2-2--2--10---10-10-10--10--5---5-5-5--5--5---5-5-5--5-
A|-0---0-0-0--0--8----8--8--8---8---3---3-3-3--3--5---5-5-5--5-
E|------------------------------------------------3---3-3-3--3-

Stave 11:

E|-------------------------------------------------------------
B|-------------------------------------------------------------
G|-2---2-2-2--2--10---10-10-10--10--5---5-5-5--5---------------
D|-2---2-2-2--2--10---10-10-10--10--5---5-5-5--5--5---5-5-5--5-
A|-0---0-0-0--0--8----8--8--8---8---3---3-3-3--3--5---5-5-5--5-
E|------------------------------------------------3---3-3-3--3-

Stave 12:

E|---------------------------------------------------------------
B|---------------------------------------------------------------
G|-2---2-2-2--2--10---10-10-10--10--5---5-5-5--5-----------------
D|-2---2-2-2--2--10---10-10-10--10--5---5-5-5--5--5---5-5-5--5---
A|-0---0-0-0--0--8----8--8--8---8---3---3-3-3--3--5---5-5-5--5---
E|------------------------------------------------3---3-3-3--3---

Stave 13:

E|---------------------------------------------------------------
B|---------------------------------------------------------------
G|-9---9---9-9-9-5---5---5----5-5-5-12---12---12-14-7---7-7--9---
D|---------------------------------------------------------------
A|-7---7---7-7-7-3---3---3----3-3-3-10---10---10-12-5---5-5--7---
E|---------------------------------------------------------------

Stave 14:

E|--------------------------------------------------------------------------
B|--------------------------------------------------------------------------
G|-9---9---9-9-9-5---5---5----5-5-5-12---12---12-17-17-17-16-16-16-19-------
D|--------------------------------------------------------------------------
A|-7---7---7-7-7-3---3---3----3-3-3-10---10---10-15-15-15-14-14-14-17-------
E|--------------------------------------------------------------------------

Stave 15:

E|---------------------------------------------------------------
B|---------------------------------------------------------------
G|-9---9---9-9-9-5---5---5----5-5-5-12---12---12-14-7---7-7--9---
D|---------------------------------------------------------------
A|-7---7---7-7-7-3---3---3----3-3-3-10---10---10-12-5---5-5--7---
E|---------------------------------------------------------------

Stave 16:

E|--------------------------------------------------------------------
B|--------------------------------------------------------------------
G|-9---9---9-9-9-5---5---5----5-5-5-12---12---12-17-17-17-16-16-16-19-
D|--------------------------------------------------------------------
A|-7---7---7-7-7-3---3---3----3-3-3-10---10---10-15-15-15-14-14-14-17-
E|--------------------------------------------------------------------

Stave 17:

E|-------------------------------------------------------------------
B|-------------------------------------------------------------------
G|-9---9---9-9-9-3---3---3-3---3---12---12---12-12-12---7-7-7-9-10-9-
D|-------------------------------------------------------------------
A|-------------------------------------------------------------------
E|-------------------------------------------------------------------

Stave 18:

E|---------------------------------------------------------------------------
B|---------------------------------------------------------------------------
G|-9---9---9-9-9-3---3---3-3---3---12---12---12-12-12---16-12-12-16-12-16-12-
D|---------------------------------------------------------------------------
A|---------------------------------------------------------------------------
E|---------------------------------------------------------------------------

Stave 19:

E|------------------------------------------------------------------------------------------
B|---------------------------------------------------20-------------17-20b21b20-17-20b21b20-
G|-17---17-17-16-17-17-16-17-16-17-19--17-19b21-21------21b19-17-19-------------------------
D|------------------------------------------------------------------------------------------
A|------------------------------------------------------------------------------------------
E|------------------------------------------------------------------------------------------

Stave 20:

E|------------------------------------------------------------------------------------------
B|-20-17------------------------------------------------------------------------------------
G|-------19v-19-17v-17-16-16h17-16v-16------------------------------------------------------
D|-------------------------------------19v-19-17v-17h19-17----------------------------------
A|---------------------------------------------------------19v-19-19v-15-15v-13v-13v-10\9-9-
E|------------------------------------------------------------------------------------------

Stave 21:

E|------------------------------------
B|------------------------------------
G|--------------------------5-5-5-5-5-
D|--------------------------5-5-5-5-5-
A|-9v-9-7v-7-7-7\5v-5-6\5\3-3-3-3-3-3-
E|------------------------------------

http://www.guitartabcreator.com
Guitar Tab Creator is intended to store guitar tab created through the tool. It currently does not support in-line text editing. Any text you place in here will be lost. If you need to comment on your tab, please use the "Tab Notes" section located below.