Sound will begin in 5 seconds

GoingToCalifornia

01234567891011121314151617181920212223
E
B
G
D
A
E
B
0 1 2 3 4 5 6 7 8 9 10 11 12 13 14 15 16 17 18 19 20 21 22 23
Song Science #1: How Pros Use 6 Chords to Write Hit Songs
(/) Slide Up  (\) Slide Down  (h) Hammer On  (p) Pull Off  (b) Bend (r) Release (v) Vibrato

Stave 1:

D|-----------0-----------|-----------0-----------|-----------0-----------|--
B|-----3-----------3-----|-----3-----------3-----|-----3-----------3-----|--
G|-----------------------|-----------------------|-----------------------|--
D|--------0-----------0--|--------0-----------0--|--------0-----------0--|--
A|-----------------------|-----------------------|-----------------------|--
D|--0-----------0--------|--0-----------0--------|--0-----------0--------|--

Stave 2:

D|--------0-------0-------0------0-------0------0-------|--
B|--------10------10------10-----10------10-----10------|--
G|----11------12------11------9--------------9------11--|--
D|-----------------------------------12-----------------|--
A|------------------------------------------------------|--
D|------------------------------------------------------|--

Stave 3:

D|--5--------4-------------|-----------0-----------|--5--------4-----------|-----------0-----------|--
B|-----0-----------0-------|--5--------------0-----|-----0-----------0-----|--5--------------0-----|--
G|-------------------------|-----0-----------------|--------0--------------|-----0-----------------|--
D|--------0-------------0--|--------0-----------0--|--------------------0--|--------0-----------0--|--
A|-------------------------|-----------------------|-----------------------|-----------------------|--
D|--5-----------5----------|--5-----------5--------|--5-----------5--------|--5-----------5--------|--

Stave 4:

D|--0--------------0-----|-----------0-----------|-----------0-----------|--
B|-----3-----------------|-----3-----------3-----|-----3-----------3-----|--
G|-----------2-----------|-----------------------|-----------------------|--
D|--------0-----------0--|--------0-----------0--|--------0-----------0--|--
A|-----------------------|-----------------------|-----------------------|--
D|--0-----------0--------|--0-----------0--------|--0-----------0--------|--

Stave 5:

D|--5--------5-----------|--5-----------0-----------|--3--------3-----------|--
B|----7-----------7-----|--------7-----------7-----|-----5-----------5-----|--
G|----------------------|--------------------------|-----------------------|--
D|-------0-----------0--|-----------0-----------0--|--------0-----------0--|--
A|----------------------|--------------------------|-----------------------|--
D|--0-----------0--------|-----0-----------0--------|--0-----------0--------|--

Stave 6:

D|-----------2p0-----------2p0--|-----------0-----------|-----------0-----------|--
B|-----3-------------3----------|-----3-----------3-----|-----3-----------3-----|--
G|------------------------------|-----------------------|-----------------------|--
D|--------0-------------0-------|--------0-----------0--|--------0-----------0--|--
A|------------------------------|-----------------------|-----------------------|--
D|--0-------------0-------------|--0-----------0--------|--0-----------0--------|--

Stave 7:

D|--3--------3-----------|-----------2p0-----------2p0--|-----------0-----------|-----------0-----------
B|-----5-----------5-----|-----3-------------3----------|-----3-----------3-----|-----3-----------3-----
G|-----------------------|------------------------------|-----------------------|-----------------------
D|--------0-----------0--|--------0-------------0-------|--------0-----------0--|--------0-----------0--
A|-----------------------|------------------------------|-----------------------|-----------------------
D|--0-----------0--------|--0-------------0-------------|--0-----------0--------|--0-----------0--------

Stave 8:

D|--5--------5-----------|--5-----------0-----------7--------7-----------|--7-----------7-----------
B|----7-----------7-----|--------7-----------7-----|--6-----------6-----|--------6-----------6-----
G|----------------------|--------------------------|--------------------|--------------------------
D|-------0-----------0--|-----------0-----------0--|-----0-----------0--|-----------0-----------0--
A|----------------------|--------------------------|--------------------|--------------------------
D|--0-----------0--------|-----0-----------0--------0-----------0--------|-----0-----------0--------

Stave 9:

D|--7-----------7-----------|--7-----------7-----------|-----------0-----------|--0-----------0-----------
B|--------6-----------6-----|--------6-----------6-----|--5--------------5-----|--------5-----------5-----
G|--------------------------|--------------------------|-----6-----------------|--------------------------
D|-----------0-----------0--|-----------0-----------0--|--------7-----------7--|-----------7-----------7--
A|--------------------------|--------------------------|--0-----------0--------|-----0-----------0--------
D|-----0-----------0--------|-----0-----------0--------|-----------------------|--------------------------

Stave 10:

D|--0-----------0-----------|--
B|--------5-----------5-----|--
G|--------------------------|--
D|-----------7-----------7--|--
A|-----0-----------0--------|--
D|--------------------------|--

http://www.guitartabcreator.com
Guitar Tab Creator is intended to store guitar tab created through the tool. It currently does not support in-line text editing. Any text you place in here will be lost. If you need to comment on your tab, please use the "Tab Notes" section located below.