Sound will begin in 5 seconds

Girl From Ipanema

01234567891011121314151617181920212223
E
B
G
D
A
E
B
0 1 2 3 4 5 6 7 8 9 10 11 12 13 14 15 16 17 18 19 20 21 22 23
Song Science #1: How Pros Use 6 Chords to Write Hit Songs
(/) Slide Up  (\) Slide Down  (h) Hammer On  (p) Pull Off  (b) Bend (r) Release (v) Vibrato

Stave 1:

E|-----------|-----------|-----------|-----------|-----------|-----------|-----------|--------|--
B|--4--4--4--|--4--4--4--|--4--4--4--|--4--4--4--|--4--4--4--|--6--6--5--|--4--4--4--|--5--5--|--
G|--3--3--3--|--3--3--3--|--6--6--6--|--6--6--6--|--6--6--6--|--5--5--5--|--3--3--3--|--4--4--|--
D|--3--3--3--|--3--3--3--|--5--5--5--|--5--5--5--|--4--4--4--|--4--4--4--|--3--3--3--|--4--4--|--
A|--4--4--4--|--4--4--4--|--6--6--6--|--6--6--6--|--6--6--6--|-----------|--4--4--4--|--5--5--|--
E|-----------|-----------|-----------|-----------|-----------|--4--4--4--|-----------|--------|--

Stave 2:

E|-----------|-----------|-----------|-----------|--5--5--5--|--5--5--5--|-----------|-----------|--
B|--7--7--7--|--7--7--7--|--3--3--3--|--3--3--3--|--6--6--6--|--6--6--6--|--6--6--6--|--6--6--6--|--
G|--6--6--6--|--6--6--6--|--4--4--4--|--4--4--4--|--5--5--5--|--5--5--5--|--7--7--7--|--7--7--7--|--
D|--7--7--7--|--7--7--7--|--3--3--3--|--3--3--3--|-----------|-----------|--6--6--6--|--6--6--6--|--
A|--5--5--5--|--5--5--5--|-----------|-----------|--5--5--5--|--5--5--5--|-----------|-----------|--
E|-----------|-----------|--3--3--3--|--3--3--3--|-----------|-----------|--6--6--6--|--6--6--6--|--

Stave 3:

E|--6--6--6--|--6--6--6--|-----------|-----------|--8--8--8--|-----------|--6--6--6--|--------|--
B|--7--7--7--|--7--7--7--|--7--7--7--|--7--7--7--|--9--9--9--|--5--5--5--|--7--7--7--|--3--3--|--
G|--6--6--6--|--6--6--6--|--8--8--8--|--8--8--8--|--8--8--8--|--7--7--7--|--6--6--6--|--5--5--|--
D|-----------|-----------|--7--7--7--|--7--7--7--|-----------|--6--6--6--|-----------|--4--4--|--
A|--6--6--6--|--6--6--6--|-----------|-----------|--8--8--8--|-----------|--6--6--6--|--------|--
E|-----------|-----------|--7--7--7--|--7--7--7--|-----------|--6--6--6--|-----------|--4--4--|--

Stave 4:

E|--------------------------------------
B|--4--------4--------4--------4--------
G|-----5--3-----5--3-----5--3-----5--3--
D|--------------------------------------
A|--4--------4--------4--------4--------
E|--------------------------------------

Stave 5:

E|-----------|-----------|-----------|-----------|--------|--
B|--4--4--4--|--5--5--5--|--4--4--4--|--5--5--5--|--4--4--|--
G|--3--3--3--|--4--4--4--|--3--3--3--|--4--4--4--|--3--3--|--
D|--3--3--3--|--4--4--4--|--3--3--3--|--4--4--4--|--3--3--|--
A|--4--4--4--|--5--5--5--|--4--4--4--|--5--5--5--|--4--4--|--
E|-----------|-----------|-----------|-----------|--------|--

http://www.guitartabcreator.com
Guitar Tab Creator is intended to store guitar tab created through the tool. It currently does not support in-line text editing. Any text you place in here will be lost. If you need to comment on your tab, please use the "Tab Notes" section located below.