Sound will begin in 5 seconds

3/11/14

01234567891011121314151617181920212223
E
B
G
D
A
E
B
0 1 2 3 4 5 6 7 8 9 10 11 12 13 14 15 16 17 18 19 20 21 22 23
Song Science #1: How Pros Use 6 Chords to Write Hit Songs
(/) Slide Up  (\) Slide Down  (h) Hammer On  (p) Pull Off  (b) Bend (r) Release (v) Vibrato

Stave 1:

E|--------------------------------------------------------------------
B|--7b8r7b8r7------------------7b8r7b8r7------------------------------
G|-------------5/7--7h9--9--9-------------7p5--2/4--------------------
D|--------------------------------------------------5-----------------
A|-----------------------------------------------------5p2------------
E|----------------------------------------------------------3/5v--3v--

Stave 2:

E|---------------------9------7--------7--------9---------9---------7--------7--------9---------
B|---------------8--------10-----8--------8--------10--------10--------8--------8--------10-----
G|-------5--7/9-----9---------------7--------7---------9---------9--------7--------7---------9--
D|--5/7-----------------------------------------------------------------------------------------
A|----------------------------------------------------------------------------------------------
E|----------------------------------------------------------------------------------------------

Stave 3:

E|--12----------9---------14----------9---------7--------5--------7--------5--------3--------
B|------13---------10---------15---------10--------8--------7--------8--------7--------5-----
G|----------12---------9----------14---------9--------7--------6--------7--------6--------4--
D|-------------------------------------------------------------------------------------------
A|-------------------------------------------------------------------------------------------
E|-------------------------------------------------------------------------------------------

Stave 4:

E|--2--------3--------2-----------------------
B|-----3--------5--------3--------------------
G|--------2--------4--------2-----------------
D|--------------------------------------3-----
A|-----------------------------3-----3--------
E|--------------------------------0--------0--

Stave 5:

E|--
B|--
G|--
D|--
A|--
E|--

http://www.guitartabcreator.com
Guitar Tab Creator is intended to store guitar tab created through the tool. It currently does not support in-line text editing. Any text you place in here will be lost. If you need to comment on your tab, please use the "Tab Notes" section located below.