Sound will begin in 5 seconds

The New York Ripper

01234567891011121314151617181920212223
E
B
G
D
A
E
B
0 1 2 3 4 5 6 7 8 9 10 11 12 13 14 15 16 17 18 19 20 21 22 23
Song Science #1: How Pros Use 6 Chords to Write Hit Songs
(/) Slide Up  (\) Slide Down  (h) Hammer On  (p) Pull Off  (b) Bend (r) Release (v) Vibrato

Stave 1:

E|-----------------------------------------------
B|-----------------------------------------------
G|-----------------------------------------------
D|--------2--------2-----------------2-----------
A|--------2--------2-----------------2-----------
E|--0--0--0--0--0--0--0--0--1--0--0--0--0--1--3--

Stave 2:

E|------------------------------------------
B|------------------------------------------
G|------------------------------------------
D|------------------------------------------
A|------------------------------------------
E|--6--6--6--6--6--5----5--5--5--6--5--3b0--

Stave 3:

E|-----------------------------------------------------------------
B|-----------------------------------------------------------------
G|-----------------------------------------------------------------
D|--2--------------5--------------7--------------8--8--8--7--5--2--
A|--2--------------5--------------7--------------8--8--8--7--5--2--
E|--0--0--0--0--0--3--0--0--0--0--5--0--0--0--0--6--6--6--5--3--0--

Stave 4:

E|--------------------------------------------------------------------------------------------
B|--------------------------------------------------------------------------------------------
G|--------------------------------------------------------------------------------------------
D|--10--10--10--10--10--9----9--9--9--9--9----12--12--12--12--12--11----11--11--11--11--11----
A|--10--10--10--10--10--9----9--9--9--9--9----12--12--12--12--12--11----11--11--11--11--11----
E|--8---8---8---8---8---7----7--7--7--7--7----10--10--10--10--10--9-----9---9---9---9---9-----

Stave 5:

E|---------------------------------------------
B|---------------------------------------------
G|---------------------------------------------
D|--10--10--10--10--10--9----9--9--9--7--5--2--
A|--10--10--10--10--10--9----9--9--9--7--5--2--
E|--8---8---8---8---8---7----7--7--7--5--3--0--

Stave 6:

E|--12--12--12--12--12--12--12--12--12--12--12--12--15--15--15--15--
B|------------------------------------------------------------------
G|------------------------------------------------------------------
D|------------------------------------------------------------------
A|------------------------------------------------------------------
E|------------------------------------------------------------------

Stave 7:

E|--11--11--11--11--11--11--11--11--11--11--11--11--14--14--14--14--
B|------------------------------------------------------------------
G|------------------------------------------------------------------
D|------------------------------------------------------------------
A|------------------------------------------------------------------
E|------------------------------------------------------------------

Stave 8:

E|--10--10--10--10--10--10--10--10--10--10--10--10--12--12--12--12--
B|------------------------------------------------------------------
G|------------------------------------------------------------------
D|------------------------------------------------------------------
A|------------------------------------------------------------------
E|------------------------------------------------------------------

Stave 9:

E|--9--9--9--9--9--9--9--9--9--9--9--9--10--10--11--11--
B|------------------------------------------------------
G|------------------------------------------------------
D|------------------------------------------------------
A|------------------------------------------------------
E|------------------------------------------------------

http://www.guitartabcreator.com
Guitar Tab Creator is intended to store guitar tab created through the tool. It currently does not support in-line text editing. Any text you place in here will be lost. If you need to comment on your tab, please use the "Tab Notes" section located below.