Solo de Let it be

Chords

01234567891011121314151617181920212223
E
B
G
D
A
E
B
0 1 2 3 4 5 6 7 8 9 10 11 12 13 14 15 16 17 18 19 20 21 22 23
(/) Slide Up  (\) Slide Down  (h) Hammer On  (p) Pull Off  (b) Bend (r) Release (v) Vibrato

E|-----------------------------------------------------------------
B|-----------------------------------------------------------------
G|-------------------------------------------5--7b9b9--7--5--7--5--
D|--5--2-------------------5--5-----5--5--7------------------------
A|--------5--3--5--3--5/7--------7---------------------------------
E|-----------------------------------------------------------------



E|-------8---------------------------------------------------
B|--------------------------8--------------------------------
G|--7/9-----9\7--5--7--7/9-----9\7--5------------------------
D|-------------------------------------7p5--7p5--------------
A|-----------------------------------------------7p5--3h5p3--
E|-----------------------------------------------------------



E|-------------------------------------------------------8--10b12b12--10--8--10--8--15b17--15-----
B|-------------------------8-------8-------8--10--8--10-------------------------------------------
G|--------5--5--------7/9-----7/9-----7/9---------------------------------------------------------
D|--5--7--------7--5------------------------------------------------------------------------------
A|------------------------------------------------------------------------------------------------
E|------------------------------------------------------------------------------------------------



E|--10b12--10--8------8--10b12--10--
B|----------------10----------------
G|----------------------------------
D|----------------------------------
A|----------------------------------
E|----------------------------------
							http://www.guitartabcreator.com
Tab Notes

 

 

 

E|-----------------------------------------------------------------

B|-----------------------------------------------------------------

G|-------------------------------------------5--7b9b9--7--5--7--5--

D|--5--2-------------------5--5-----5--5--7------------------------

A|--------5--3--5--3--5/7--------7---------------------------------

E|-----------------------------------------------------------------

 

 

 

E|-------8---------------------------------------------------

B|--------------------------8--------------------------------

G|--7/9-----9\7--5--7--7/9-----9\7--5------------------------

D|-------------------------------------7p5--7p5--------------

A|-----------------------------------------------7p5--3h5p3--

E|-----------------------------------------------------------

 

 

 

E|-------------------------------------------------------8--10b12b12--10--8--10--8--15b17--15-----

B|-------------------------8-------8-------8--10--8--10-------------------------------------------

G|--------5--5--------7/9-----7/9-----7/9---------------------------------------------------------

D|--5--7--------7--5------------------------------------------------------------------------------

A|------------------------------------------------------------------------------------------------

E|------------------------------------------------------------------------------------------------

 

 

 

E|--10b12--10--8------8--10b12--10--

B|----------------10----------------

G|----------------------------------

D|----------------------------------

A|----------------------------------

E|----------------------------------

[[".",".",".",".",".",".",".",".",".",".","."],[".",".",".",".",".",".",".",".",".",".","."],[".",".",".",".",".",".",".",".",".",".","."],[".",".",".",".",".",".",".",".",".",".","."],[".",".",".",".",".","10",".",".",".",".","."],["10","b","12","10","8",".","8","10","b","12","10"]]

Member for

8 years 8 months
Submitted by revolucion9 on Fri, 2011-09-30 10:43