Sound will begin in 5 seconds

Metallic Black

01234567891011121314151617181920212223
E
B
G
D
A
E
B
0 1 2 3 4 5 6 7 8 9 10 11 12 13 14 15 16 17 18 19 20 21 22 23
Song Science #1: How Pros Use 6 Chords to Write Hit Songs
(/) Slide Up  (\) Slide Down  (h) Hammer On  (p) Pull Off  (b) Bend (r) Release (v) Vibrato

Stave 1:

E|-----------------
B|-----------------
G|--------2--------
D|--2--3--2--2--2--
A|--2--1-----2--2--
E|-----------------

Stave 2:

E|-----------------
B|-----------------
G|-----------------
D|--2--3--3--2--2--
A|--2--1--3--2--2--
E|-----------------

Stave 3:

E|--------------------
B|--------------------
G|--------2-----------
D|--2--3--2--2--2--2--
A|--2--1-----2--2--2--
E|--------------------

Stave 4:

E|-----------------------------------------------------------------------
B|-----------------------------------------------------------------------
G|--------------------------------------------------2--------------------
D|--2--3--3--2--2--2--2--2--2--2--2--2--2--2--2--3--2--2--2--2--2--3--3--
A|--2--1--3--2--2--2--2--2--2--2--2--2--2--2--2--1-----2--2--2--2--3--3--
E|-----------------------------------------------------------------------

Stave 5:

E|--------
B|--------
G|--------
D|--------
A|--------
E|--0--0--

Stave 6:

E|--------
B|--------
G|--------
D|--------
A|--------
E|--0--0--

Stave 7:

E|--------
B|--------
G|--------
D|--------
A|--------
E|--0--0--

Stave 8:

E|-----------
B|-----------
G|-----------
D|-----------
A|-----------
E|--0--0--0--

Stave 9:

E|-----------------------
B|-----------------------
G|-----------------------
D|-----------------------
A|-----------------------
E|--0--0--0--0--0--0--0--

Stave 10:

E|-----------------------
B|-----------------------
G|-----------------------
D|-----------------------
A|-----------------------
E|--0--0--0--0--0--0--0--

Stave 11:

E|-----------------------
B|-----------------------
G|-----------------------
D|-----------------------
A|-----------------------
E|--0--0--0--0--0--0--0--

Stave 12:

E|------------------------------------
B|------------------------------------
G|------------------------------------
D|------------------------------------
A|-----------------------7h8--7--5/8--
E|--0--0--0--0--0--0--0---------------

Stave 13:

E|-------------------
B|-------------------
G|-------------------
D|-------------------
A|--------7b---------
E|--0--0----0--1--3--

Stave 14:

E|--------------------
B|--------------------
G|--------------------
D|--5--5--7--8--7-----
A|--5--5--7--8--7-----
E|--3--3--5--6--5-----

Stave 15:

E|-------------------
B|-------------------
G|-------------------
D|-------------------
A|--------7b---------
E|--0--0----0--1--3--

Stave 16:

E|-----------------------------------
B|-----------------------------------
G|-----------------------------------
D|--8--8--8--8--8--8--8--8--8--7-----
A|--8--8--8--8--8--8--8--8--8--7-----
E|--6--6--6--6--6--6--6--6--6--5-----

Stave 17:

E|-------------------
B|-------------------
G|-------------------
D|-------------------
A|--------7b---------
E|--0--0----0--1--3--

Stave 18:

E|-----------------------------------
B|-----------------------------------
G|-----------------------------------
D|-----3--3--3--3--3--3--3--3--3--3--
A|-----3--3--3--3--3--3--3--3--3--3--
E|-----1--1--1--1--1--1--1--1--1--1--

Stave 19:

E|-------------------
B|-------------------
G|-------------------
D|-------------------
A|--------7b---------
E|--0--0----0--1--3--

Stave 20:

E|-----
B|-----
G|-----
D|--3--
A|--3--
E|--1--

Stave 21:

E|-------------------
B|-------------------
G|-------------------
D|-------------------
A|--------7b---------
E|--0--0----0--1--3--

Stave 22:

E|--------------------------------------------------------------------------
B|--------------------------------------------------------------------------
G|--------------------------------------------------------------------------
D|--------------------------2-----------------------------------------------
A|-----3--5-----5--7-----2-----7b---------------7b---------------7b---------
E|--3--------5--------0----------0--1--3--0--0----0--1--3--0--0----0--1--3--

Stave 23:

E|-------------------
B|-------------------
G|-------------------
D|-------------------
A|--------7b---------
E|--0--0----0--1--3--

Stave 24:

E|-----------------
B|-----------------
G|-----------------
D|--5--5--7--8--7--
A|--5--5--7--8--7--
E|--3--3--5--6--5--

Stave 25:

E|--------------------------------------------------
B|--------------------------------------------------
G|-----------------------------------4--------------
D|--------------------------------4-----------------
A|-----3--5-----5--7-----1--4--2--------------------
E|--3--------5--------2-----------------------------

Stave 26:

E|--------------------------------------------------------------------------------------------
B|--------------------------------------------------------------------------------------------
G|--------------------------------------------------------------------------------------------
D|--------------------------------------------------------------------------------------------
A|--------------------------------------------------------------------------------------------
E|--0--0--0--0--0--0--0--0--0--0--0--0--0--0--0--0--0--0--0--0--0--0--0--0--0--0--0--0--0--0--

Stave 27:

E|--------------------------------------------------
B|--------------------------------------------------
G|--------------------------------------------------
D|--------------------------------------------------
A|--------------------------------------------------
E|--12--12--12--12--12--12--12--12--12--12--12--12--

http://www.guitartabcreator.com
Guitar Tab Creator is intended to store guitar tab created through the tool. It currently does not support in-line text editing. Any text you place in here will be lost. If you need to comment on your tab, please use the "Tab Notes" section located below.