Sound will begin in 5 seconds

Hysteria - Def Leppard

01234567891011121314151617181920212223
E
B
G
D
A
E
B
0 1 2 3 4 5 6 7 8 9 10 11 12 13 14 15 16 17 18 19 20 21 22 23
Song Science #1: How Pros Use 6 Chords to Write Hit Songs
(/) Slide Up  (\) Slide Down  (h) Hammer On  (p) Pull Off  (b) Bend (r) Release (v) Vibrato

Stave 1:

E|-------------------------------------------------------------------------
B|-------------------------------------------------------------------------
G|-------0-----0-----0-----------0-----------0-----------------------0-----
D|---4-----4-----4-----4-------4---4-------4---4-------4-5-4-------4---4---
A|-5---5-----5-----5-----5---5-------5---5-------5---2-------2---5-------5-
E|-------------------------3-----------3-----------0-----------3-----------

Stave 2:

E|-------------------------
B|-------------------------
G|-------0-----0-----0-----
D|---4-----4-----4-----4---
A|-5---5-----5-----5-----5-
E|-------------------------

Stave 3:

E|-------------------------------------------------------------------------
B|-------------------------------------------------------------------------
G|-------0-----0-----0-----------0-----------0-----------------------0-----
D|---4-----4-----4-----4-------4---4-------4---4-------4-5-4-------4---4---
A|-5---5-----5-----5-----5---5-------5---5-------5---2-------2---5-------5-
E|-------------------------3-----------3-----------0-----------3-----------

Stave 4:

E|-------------------------
B|-------------------------
G|-------0-----0-----0-----
D|---4-----4-----4-----4---
A|-5---5-----5-----5-----5-
E|-------------------------

Stave 5:

E|-------------------------------------------------------------------------
B|-------------------------------------------------------------------------
G|-------------------------------------------------------------------------
D|---4---5-4-----4---5-4-------4-5-4-------4-5-4-------4-5-4-------4-5-4---
A|-5---5-----5-5---5-----5---5-------5---5-------5---2-------2---5-------5-
E|-------------------------3-----------3-----------0-----------3-----------

Stave 6:

E|-------------------2-3-3-0-----2-3-3-0-----2-3-3-0-------3-2-
B|-------------------3-3-3---3---3-3-3---3---3-3-3---3---1---3-
G|-------------------2-2-------0-2-2-------0-2-2-------0-----2-
D|---4---5-4---5-4-------2-----------------------2-------2-----
A|-5---5-----5-----5-----3-----------2-----------3-------3-2---
E|---------------------------------------------------------3---

Stave 7:

E|-10-------10-------10-------10-------10-------10-------10-------10--------
B|------8--------8--------8--------8--------8--------7--------8--------10---
G|----7---7----7---7----7---7----7---7----7---7----7---7----7---7----7----7-
D|--------------------------------------------------------------------------
A|--------------------------------------------------------------------------
E|--------------------------------------------------------------------------

Stave 8:

E|-10-------10-------10-------10-------10-------10-------10-------10--------
B|------8--------8--------8--------8--------8--------7--------8--------10---
G|----7---7----7---7----7---7----7---7----7---7----7---7----7---7----7----7-
D|--------------------------------------------------------------------------
A|--------------------------------------------------------------------------
E|--------------------------------------------------------------------------

Stave 9:

E|-10-------10-------10-------10------------
B|------8--------8--------8--------8---8/10-
G|----7---7----7---7----7---7----7---7------
D|------------------------------------------
A|------------------------------------------
E|------------------------------------------

http://www.guitartabcreator.com
Guitar Tab Creator is intended to store guitar tab created through the tool. It currently does not support in-line text editing. Any text you place in here will be lost. If you need to comment on your tab, please use the "Tab Notes" section located below.