The Progression (guide tone melody)

01234567891011121314151617181920212223
E
B
G
D
A
E
B
0 1 2 3 4 5 6 7 8 9 10 11 12 13 14 15 16 17 18 19 20 21 22 23
(/) Slide Up  (\) Slide Down  (h) Hammer On  (p) Pull Off  (b) Bend (r) Release (v) Vibrato

Stave 1:

E|-----------------------7--5--4--3--4-----------------------4--7--4-----------------7--4--5-----------------------------------
B|-----------------5--------------------5--7--5-----------5-----------5-----------7-----------7-----5--4-----------------------
G|--------------6-----6--------------------------5-----4--------------------6--7-----------------6--------4-----4--------------
D|-----------6-----------------------------------------------------------6-----------------------------------6-----6-----------
A|--------7-----------------------------------------------------------------------------------------------------------7--------
E|-----5-----------------------------------------------------------------------------------------------------------------4-----

Stave 2:

E|-----------------------------------7------------------------------------------
B|-----------------------5--------7-----10--9-----------------------------------
G|-----------------6--------6--7---------------9-----7--6-----------------6-----
D|-----------6--------6---------------------------9--------6-----9-----6-----9--
A|--------7-----7---------------------------------------------7-----8-----------
E|-----5------------------------------------------------------------------------

Stave 3:

E|--------------------4--5--4-----------------------------------------4--7--11--
B|-----------------5-----------7--5-----5-----------------------4--5------------
G|--------------6--------------------5-----4-----------------4------------------
D|-----7--6--7--------------------------------7--4--------6---------------------
A|--------------------------------------------------6--7------------------------
E|------------------------------------------------------------------------------

							http://www.guitartabcreator.com
Chords

Instruments
{"strings":[[["_",".",".",".",".",".",".",7,5,4,3,4,".",".",".",".","_",".",".",4,7,4,".",".",".",".",".",7,4,5,".",".",".",".",".",".",".",".",".",".","_"],["_",".",".",".",".",5,".",".",".",".",".",".",5,7,5,".","_",".",5,".",".",".",5,".",".",".",7,".",".",".",7,".",5,4,".",".",".",".",".",".","_"],["_",".",".",".",6,".",6,".",".",".",".",".",".",".",".",5,"_",4,".",".",".",".",".",".",6,7,".",".",".",".",".",6,".",".",4,".",4,".",".",".","_"],["_",".",".",6,".",".",".",".",".",".",".",".",".",".",".",".","_",".",".",".",".",".",".",6,".",".",".",".",".",".",".",".",".",".",".",6,".",6,".",".","_"],["_",".",7,".",".",".",".",".",".",".",".",".",".",".",".",".","_",".",".",".",".",".",".",".",".",".",".",".",".",".",".",".",".",".",".",".",".",".",7,".","_"],["_",5,".",".",".",".",".",".",".",".",".",".",".",".",".",".","_",".",".",".",".",".",".",".",".",".",".",".",".",".",".",".",".",".",".",".",".",".",".",4,"_"]],[["_",".",".",".",".",".",".",".",".",".",".",7,".",".",".",".",".",".",".",".",".",".",".",".","."],["_",".",".",".",".",".",".",5,".",".",7,".",10,9,".",".",".",".",".",".",".",".",".",".","."],["_",".",".",".",".",6,".",".",6,7,".",".",".",".",9,".",7,6,".",".",".",".",".",6,"."],["_",".",".",6,".",".",6,".",".",".",".",".",".",".",".",9,".",".",6,".",9,".",6,".",9],["_",".",7,".",7,".",".",".",".",".",".",".",".",".",".",".",".",".",".",7,".",8,".",".","."],["_",5,".",".",".",".",".",".",".",".",".",".",".",".",".",".",".",".",".",".",".",".",".",".","."]],[["_",".",".",".",".",".",4,5,4,".",".",".",".",".",".",".",".",".",".",".",".",".",4,7,11],["_",".",".",".",".",5,".",".",".",7,5,".",5,".",".",".",".",".",".",".",4,5,".",".","."],["_",".",".",".",6,".",".",".",".",".",".",5,".",4,".",".",".",".",".",4,".",".",".",".","."],["_",7,6,7,".",".",".",".",".",".",".",".",".",".",7,4,".",".",6,".",".",".",".",".","."],["_",".",".",".",".",".",".",".",".",".",".",".",".",".",".",".",6,7,".",".",".",".",".",".","."],["_",".",".",".",".",".",".",".",".",".",".",".",".",".",".",".",".",".",".",".",".",".",".",".","."]]],"numberofstrings":6,"notes":["E","B","G","D","A","E","B"],"capo":0,"stringnotes":["E4","B3","G3","D3","A2","E2"],"comments":["Stave 1:","Stave 2:","Stave 3:"],"timing":[[null,"W","W","W","W","W","W","W","W","W","W","W","W",null,"W","W","W","W",null,"W","W","W","W","W","W","W","W","W","W","W","W","W","W","W","W","W","W","W","W","W","W","W",null,"W","W","W","W","W","W"],["W","W","W","W","W","W","W","W","W","W","W","W","W","W","W","W","W","W","W","W","W","W","W","W","W","W","W","W","W","W","W","W","W","W","W","W","W","W","W","W","W","W","W"],[null,"W","W","W","W","W","W","W","W","W","W","W","W","W","W","W","W","W","W","W","W","W","W","W","W"]],"timingvisible":false,"tabcounter":25,"stave":2,"totalstaves":3,"instrument":"6guitar","selectedtuning":"6_standard","version":"13"}

Member for

2 months
Submitted by ReconCS6Reviewer on Mon, 2020-11-30 11:36