intro and solo to half written song (C Major)

01234567891011121314151617181920212223
E
B
G
D
A
E
B
0 1 2 3 4 5 6 7 8 9 10 11 12 13 14 15 16 17 18 19 20 21 22 23
(/) Slide Up  (\) Slide Down  (h) Hammer On  (p) Pull Off  (b) Bend (r) Release (v) Vibrato

Stave 1:

E|--------------9--10--12--9--0--------------------------------------------------------------------------------
B|------10--------------------3-------------------------------------6-----5-----10-----12---------10-----------
G|----------11----------------4-------------------------------0--2--6-----3-----9-------------12--8------------
D|--12------------------------4-------------------------0--4--------5-----5-----10---------7------10-----------
A|----------------------------------12-----10--------1--------------------4-----8-----------------8------------
E|------------------------------------------------3-----------------5------------------------------------------

Stave 2:

E|-----12--7---------------------5--7--5-----------------------------------------------------0--12--7-----
B|--4---------------10--8--7--8-----------8--7------------------------------------------------------------
G|--4-------------------------------------------7-----9--7--6---------------------------------------------
D|--3----------------------------------------------9-----------9--7--4--5--7--4--5--7--3------------------
A|-------------------------------------------------------------------5--------3--------2------------------
E|--3-------------------------------------------------------------------------------------3---------------

Stave 3:

E|--7--5----------------------------------------------------------------------------
B|--------8-----7-----------------------------------------------------10-----10-----
G|--------------------7-----5-----4-----------------------------------9------8------
D|--------------5-----------------------------5--4--0-----------------10-----10-----
A|--------------------5-----3-----3-----------------------8-----7-----8------8------
E|--------------------------------------------3-----------5-----6-------------------

							http://www.guitartabcreator.com
Chords

Instruments
{"strings":[[[".",".",".",9,10,12,9,0,"_",".","_",".","_",".",".",".",".",".",".",".","_",".","_",".","_",".",".",".",".","_","_","_"],[".",10,".",".",".",".",".",3,"_",".","_",".","_",".",".",".",".",".",".",6,"_",5,"_",10,"_",12,".",".",10,"_","_","_"],[".",".",11,".",".",".",".",4,"_",".","_",".","_",".",".",".",".",0,2,6,"_",3,"_",9,"_",".",".",12,8,"_","_","_"],[12,".",".",".",".",".",".",4,"_",".","_",".","_",".",".",0,4,".",".",5,"_",5,"_",10,"_",".",7,".",10,"_","_","_"],[".",".",".",".",".",".",".",".","_",12,"_",10,"_",".",1,".",".",".",".",".","_",4,"_",8,"_",".",".",".",8,"_","_","_"],[".",".",".",".",".",".",".",".","_",".","_",".","_",3,".",".",".",".",".",5,"_",".","_",".","_",".",".",".",".","_","_","_"]],[[".",12,7,"_","_",".",".",".",".",5,7,5,".",".",".",".",".",".",".",".",".",".",".",".",".",".",".",".",".",0,12,7,"_"],[4,".",".","_","_",10,8,7,8,".",".",".",8,7,".",".",".",".",".",".",".",".",".",".",".",".",".",".",".",".",".",".","_"],[4,".",".","_","_",".",".",".",".",".",".",".",".",".",7,".",9,7,6,".",".",".",".",".",".",".",".",".",".",".",".",".","_"],[3,".",".","_","_",".",".",".",".",".",".",".",".",".",".",9,".",".",".",9,7,4,5,7,4,5,7,3,".",".",".",".","_"],[".",".",".","_","_",".",".",".",".",".",".",".",".",".",".",".",".",".",".",".",".",5,".",".",3,".",".",2,".",".",".",".","_"],[3,".",".","_","_",".",".",".",".",".",".",".",".",".",".",".",".",".",".",".",".",".",".",".",".",".",".",".",3,".",".",".","_"]],[[7,5,".","_",".","_",".","_",".","_",".","_","_","_",".",".",".","_",".","_",".","_",".","_",".","_"],[".",".",8,"_",7,"_",".","_",".","_",".","_","_","_",".",".",".","_",".","_",".","_",10,"_",10,"_"],[".",".",".","_",".","_",7,"_",5,"_",4,"_","_","_",".",".",".","_",".","_",".","_",9,"_",8,"_"],[".",".",".","_",5,"_",".","_",".","_",".","_","_","_",5,4,0,"_",".","_",".","_",10,"_",10,"_"],[".",".",".","_",".","_",5,"_",3,"_",3,"_","_","_",".",".",".","_",8,"_",7,"_",8,"_",8,"_"],[".",".",".","_",".","_",".","_",".","_",".","_","_","_",3,".",".","_",5,"_",6,"_",".","_",".","_"]]],"numberofstrings":6,"notes":["E","B","G","D","A","E","B"],"capo":0,"stringnotes":["E4","B3","G3","D3","A2","E2"],"comments":["Stave 1:","Stave 2:","Stave 3:"],"timing":[["W","W","W","W","W","W","W","W",null,"W",null,"W",null,"W","W","W","W","W","W","W",null,"W",null,"W",null,"W","W","W","W"],["W","W","W",null,null,"W","W","W","W","W","W","W","W","W","W","W","W","W","W","W","W","W","W","W","W","W","W","W","W","W","W","W",null,"W","W","W","W"],["W","W","W",null,"W",null,"W",null,"W",null,"W","W",null,null,"W","W","W",null,"W",null,"W",null,"W",null,"W"]],"timingvisible":false,"tabcounter":26,"stave":2,"totalstaves":3,"instrument":"6guitar","selectedtuning":"6_standard","version":"13"}

Member for

3 months 1 week
Submitted by ReconCS6Reviewer on Sun, 2021-01-24 13:10