ii V I guide tones

Chords

01234567891011121314151617181920212223
E
B
G
D
A
E
B
0 1 2 3 4 5 6 7 8 9 10 11 12 13 14 15 16 17 18 19 20 21 22 23
(/) Slide Up  (\) Slide Down  (h) Hammer On  (p) Pull Off  (b) Bend (r) Release (v) Vibrato

Stave 1:

E|--5-----1--------------------------------3--1-----------------------
B|--6--------3--1-----------1-----------3--------3--------------1-----
G|--5--------------2-----2--------4-----------------4--0--------4-----
D|--7-----------------3-----------3-----------------------3-----2-----
A|--5-----------------------------5-----------------------------------
E|--------------------------------3-----------------------------3-----

Stave 2:

E|-----------------1--------------------------3--1--0-----
B|--------------3-----3--------------------3--------------
G|--------2--5-----------5--4-----------4-----------------
D|-----3-----------------------5--3--5--------------------
A|--5-----------------------------------------------------
E|--------------------------------------------------------

Stave 3:

E|--5--0--------------------------------------3--1--0-----
B|--------2--0-----------------------------3--------------
G|--------------1-----------------------4-----------------
D|-----------------2--------------3--5--------------------
A|--------------------5--3--2--5--------------------------
E|--------------------------------------------------------

Stave 4:

E|--1-----1--5--1--------------------------------------------------------
B|--1--------------3--1--------1--------------3-----------------------0--
G|--2-----------------------2--------4-----4-----4--------------------0--
D|--0--------------------3-----------3--------------5--3-----5--3-----2--
A|-----------------------------------5--------------------5-----------3--
E|-----------------------------------3-----------------------------------

							http://www.guitartabcreator.com
Instruments
{"strings":[[[5,"_",1,".",".",".",".",".",".","_",".","_",".",3,1,".",".",".",".","_",".","_"],[6,"_",".",3,1,".",".",".",1,"_",".","_",3,".",".",3,".",".",".","_",1,"_"],[5,"_",".",".",".",2,".",2,".","_",4,"_",".",".",".",".",4,0,".","_",4,"_"],[7,"_",".",".",".",".",3,".",".","_",3,"_",".",".",".",".",".",".",3,"_",2,"_"],[5,"_",".",".",".",".",".",".",".","_",5,"_",".",".",".",".",".",".",".","_",".","_"],[".","_",".",".",".",".",".",".",".","_",3,"_",".",".",".",".",".",".",".","_",3,"_"]],[[".",".",".",".",".",1,".",".",".",".",".",".",".",".",3,1,0,"_"],[".",".",".",".",3,".",3,".",".",".",".",".",".",3,".",".",".","_"],[".",".",2,5,".",".",".",5,4,".",".",".",4,".",".",".",".","_"],[".",3,".",".",".",".",".",".",".",5,3,5,".",".",".",".",".","_"],[5,".",".",".",".",".",".",".",".",".",".",".",".",".",".",".",".","_"],[".",".",".",".",".",".",".",".",".",".",".",".",".",".",".",".",".","_"]],[[5,0,".",".",".",".",".",".",".",".",".",".",".",".",3,1,0,"_"],[".",".",2,0,".",".",".",".",".",".",".",".",".",3,".",".",".","_"],[".",".",".",".",1,".",".",".",".",".",".",".",4,".",".",".",".","_"],[".",".",".",".",".",2,".",".",".",".",3,5,".",".",".",".",".","_"],[".",".",".",".",".",".",5,3,2,5,".",".",".",".",".",".",".","_"],[".",".",".",".",".",".",".",".",".",".",".",".",".",".",".",".",".","_"]],[[1,"_",1,5,1,".",".",".",".",".","_",".","_",".",".",".",".",".",".",".",".","_","."],[1,"_",".",".",".",3,1,".",".",1,"_",".","_",".",3,".",".",".",".",".",".","_",0],[2,"_",".",".",".",".",".",".",2,".","_",4,"_",4,".",4,".",".",".",".",".","_",0],[0,"_",".",".",".",".",".",3,".",".","_",3,"_",".",".",".",5,3,".",5,3,"_",2],[".","_",".",".",".",".",".",".",".",".","_",5,"_",".",".",".",".",".",5,".",".","_",3],[".","_",".",".",".",".",".",".",".",".","_",3,"_",".",".",".",".",".",".",".",".","_","."]]],"numberofstrings":6,"notes":["E","B","G","D","A","E","B"],"capo":0,"stringnotes":["E4","B3","G3","D3","A2","E2"],"comments":["Stave 1:","Stave 2:","Stave 3:","Stave 4:"],"timing":[["W",null,"W","W","W","W","W","W","W",null,"W",null,"W","W","W","W","W","W","W",null,"W"],["W","W","W","W","W","W","W","W","W","W","W","W","W","W","W","W","W"],["W","W","W","W","W","W","W","W","W","W","W","W","W","W","W","W","W"],["W",null,"W","W","W","W","W","W","W","W",null,"W","W","W","W","W","W","W","W","W","W",null,"W"]],"timingvisible":false,"tabcounter":22,"stave":3,"totalstaves":4,"instrument":"6guitar","selectedtuning":"6_standard","version":"13"}

Member for

2 weeks
Submitted by ReconCS6Reviewer on Thu, 2020-11-19 11:51