Sound will begin in 5 seconds

Evolution of Metal 2

01234567891011121314151617181920212223
E
B
G
D
A
E
B
0 1 2 3 4 5 6 7 8 9 10 11 12 13 14 15 16 17 18 19 20 21 22 23
Song Science #1: How Pros Use 6 Chords to Write Hit Songs
(/) Slide Up  (\) Slide Down  (h) Hammer On  (p) Pull Off  (b) Bend (r) Release (v) Vibrato

Stave 1:

E|--------------------------------------------------------------
B|--------------------------------------------------------------
G|--------------------------------------------------------------
D|--------------------------------------------------------------
A|--14--14--16--14--14--14--16--14--14--14--16--14--14--14--16--
E|--12--12--12--12--12--12--12--12--12--12--12--12--12--12--12--

Stave 2:

E|------------------------------------------------------------------------------
B|------------------------------------------------------------------------------
G|------------------------------------------------------------------------------
D|------------------------------------------------------------------------------
A|--14--14--16--14--14--14--16--9--9--11--9--9--9--11--7--7--9--7--7--7--9--14--
E|--12--12--12--12--12--12--12--7--7--7---7--7--7--7---5--5--5--5--5--5--5--12--

Stave 3:

E|----------------------------------------------------
B|----------------------------------------------------
G|----------------------------------------------------
D|-------------------------------------------------2--
A|--14--14--16--14--14--14--16--9--9--11--7--7--9--2--
E|--12--12--12--12--12--12--12--7--7--7---5--5--5--0--

Stave 4:

E|--------5-------8--7--7---------------5-------8--7--5--7--
B|--5--7-----7-------------5------5--7-----7----------------
G|----------------------------------------------------------
D|----------------------------------------------------------
A|----------------------------------------------------------
E|----------------------------------------------------------

Stave 5:

E|-----
B|--5--
G|-----
D|-----
A|-----
E|-----

http://www.guitartabcreator.com
Guitar Tab Creator is intended to store guitar tab created through the tool. It currently does not support in-line text editing. Any text you place in here will be lost. If you need to comment on your tab, please use the "Tab Notes" section located below.