Sound will begin in 5 seconds

Zeplike

01234567891011121314151617181920212223
E
B
G
D
A
E
B
0 1 2 3 4 5 6 7 8 9 10 11 12 13 14 15 16 17 18 19 20 21 22 23
Song Science #1: How Pros Use 6 Chords to Write Hit Songs
(/) Slide Up  (\) Slide Down  (h) Hammer On  (p) Pull Off  (b) Bend (r) Release (v) Vibrato

Stave 1:

E|--------------------------------------------------
B|-----2--------4--------5--------4--------2--------
G|--------2--------2--------2--------2--------2-----
D|--------------------------------------------------
A|--0--------0--------0--------0--------0--------0--
E|--------------------------------------------------

Stave 2:

E|--------------------------------------------------
B|--------------------------------------------------
G|-----1--------2--------4--2--1h2p1----------------
D|--------2--------2------------------2p0h2--0h2p0--
A|--2--------2--------2-----------------------------
E|--------------------------------------------------

Stave 3:

E|------------------------------------------------------------------------------------
B|-----2--------4--------5--------7--5--4h5p4-----------------------------------------
G|--------2--------2--------2---------------------------------------------------------
D|------------------------------------------------------------------------------------
A|--0--------0--------0--------0------------------------------------------------------
E|------------------------------------------------------------------------------------

Stave 4:

E|--7--5--4h5p4--2h4p2--0-----------------------------
B|----------------------------------------------------
G|-------------------------4--2--1h2p1----------------
D|--------------------------------------2p0h2--0h2p0--
A|----------------------------------------------------
E|----------------------------------------------------

Stave 5:

E|--------------------------------------------------
B|-----2--------4--------5--------4--------2--------
G|--------2--------2--------2--------2--------2-----
D|--------------------------------------------------
A|--0--------0--------0--------0--------0--------0--
E|--------------------------------------------------

Stave 6:

E|--------------------------------------------------
B|--------------------------------------------------
G|-----1--------2--------4--2--1h2p1----------------
D|--------2--------2------------------2p0h2--0h2p0--
A|--2--------2--------2-----------------------------
E|--------------------------------------------------

Stave 7:

E|-----------------3--0--------------7--5-----0-----
B|--------3--------3--0-----5--------5--5-----0-----
G|-----------0-----------------6--------------------
D|--------------------------------------------------
A|-----2--------2-----------------------------------
E|--3--------------------5--------5--------5--------

Stave 8:

E|--------------0----------------0----------------
B|-----0--------0-----0-------0-------------------
G|--------1--------------1h2----------------------
D|------------------------------------------------
A|-----------------2------------------------------
E|--0--------0------------------------------------

Stave 9:

E|-----------0--------0-------------------0--------------------
B|--------------0--------0-----------2h3--------0--------------
G|-------------------------------------------------2-----------
D|-------------------------------------------------------------
A|-------------------------------------------0-----------------
E|--3--2--0--------0--------0--2--3----------------------------

Stave 10:

E|--------------------0--------0--
B|-----------1-----------1-----1--
G|--------------0-----------------
D|-----------------2--------2-----
A|--0--2--3-----------------------
E|--------------------------------

Stave 11:

E|-----2h3p2-----0--------0--
B|-----3------------3-----3--
G|---------------------------
D|--0---------0--------0-----
A|---------------------------
E|---------------------------

Stave 12:

E|-----2h3p2-----7p5p0--------------0-----
B|-----3----------------7p5p0-------------
G|-----------------------------2h4--------
D|--0---------0---------------------------
A|----------------------------------------
E|----------------------------------------

Stave 13:

E|----------------0-----------
B|-----------2h3--------0-----
G|-------------------------2--
D|----------------------------
A|-------------------0--------
E|--3--2--0-------------------

Stave 14:

E|-----------5p4----------3p0------------
B|----------------5--5p3-------2p0--2h3--
G|---------------------------------------
D|---------------------------------------
A|---------------------------------------
E|--3--2--0------------------------------

Stave 15:

E|-------------------------
B|--2h3p2p0-----0----------
G|-----------2-----2p0-----
D|----------------------2--
A|-------------------------
E|-------------------------

Stave 16:

E|--------------0-----------------------0-----------
B|-----0-----------0-----0-----0-----------0-----0--
G|--------1-----------------------1-----------------
D|--------------------------------------------------
A|--------------------------------------------------
E|--0--------0--------0-----0--------0--------0-----

http://www.guitartabcreator.com
Guitar Tab Creator is intended to store guitar tab created through the tool. It currently does not support in-line text editing. Any text you place in here will be lost. If you need to comment on your tab, please use the "Tab Notes" section located below.