Sound will begin in 5 seconds

jimi solo

01234567891011121314151617181920212223
E
B
G
D
A
E
B
0 1 2 3 4 5 6 7 8 9 10 11 12 13 14 15 16 17 18 19 20 21 22 23
Song Science #1: How Pros Use 6 Chords to Write Hit Songs
(/) Slide Up  (\) Slide Down  (h) Hammer On  (p) Pull Off  (b) Bend (r) Release (v) Vibrato

Stave 1:

E|-----------------12------------12------12--
B|------10--12p10------15----15------15------
G|--11---------------------------------------
D|-------------------------------------------
A|-------------------------------------------
E|-------------------------------------------

Stave 2:

E|--15p12--12-----12------------12------------12---------12--
B|---------15b17--17b15--12h15--15b17--15b17------15b17------
G|-----------------------------------------------------------
D|-----------------------------------------------------------
A|-----------------------------------------------------------
E|-----------------------------------------------------------

Stave 3:

E|--15p12------12-------------------------------
B|---------15------15p12--15p12------12---------
G|-------------------------------14------14p12--
D|----------------------------------------------
A|----------------------------------------------
E|----------------------------------------------

Stave 4:

E|-----------------------9--7h9p7--12--12--
B|--7h9p7--10--9--7h9p7--------------------
G|-----------------------------------------
D|-----------------------------------------
A|-----------------------------------------
E|-----------------------------------------

Stave 5:

E|--12---------12--10--9--9h10p9------9--
B|------10--9---------------------10-----
G|---------------------------------------
D|---------------------------------------
A|---------------------------------------
E|---------------------------------------

Stave 6:

E|--2--10--9h10p9--------------------------------
B|--2--------------12--10--9-------------9h10p9--
G|--2-------------------------11/9/8-------------
D|--4---------------------------------9----------
A|--5--------------------------------------------
E|-----------------------------------------------

Stave 7:

E|--------------------------------------------
B|--------------------------------------------
G|--6h7p6-------------------------------------
D|---------9--7--6---------------------6h7p6--
A|------------------9--7--6-------7h9---------
E|---------------------------7/9--------------

Stave 8:

E|--4--4----------------------------2--2--
B|--4--4----------------------------2--2--
G|--4--4--9--7--6-----6--7p6-----6--2--2--
D|--6--6-----------7----------7-----4--4--
A|--7--7----------------------------5--5--
E|----------------------------------------

Stave 9:

E|---------------------------------------
B|---------------------------------------
G|--7--6h7p6-----------------------------
D|------------9--7--6--------------------
A|---------------------9--7--6-----------
E|------------------------------7/9------

http://www.guitartabcreator.com
Guitar Tab Creator is intended to store guitar tab created through the tool. It currently does not support in-line text editing. Any text you place in here will be lost. If you need to comment on your tab, please use the "Tab Notes" section located below.