Sound will begin in 5 seconds

Jimi

01234567891011121314151617181920212223
E
B
G
D
A
E
B
0 1 2 3 4 5 6 7 8 9 10 11 12 13 14 15 16 17 18 19 20 21 22 23
Song Science #1: How Pros Use 6 Chords to Write Hit Songs
(/) Slide Up  (\) Slide Down  (h) Hammer On  (p) Pull Off  (b) Bend (r) Release (v) Vibrato

Stave 1:

E|--4--4--4--4--4--3--2--2--2--2--2--3--
B|--4--4--4--4--4--3--2--2--2--2--2--3--
G|--4--4--4--4--4--3--2--2--2--2--2--3--
D|--6--6--6--6--6--5--4--4--4--4--4--5--
A|--7--7--7--7--7--6--5--5--5--5--5--6--
E|--------------------------------------

Stave 2:

E|-----------2---------------------------
B|-----2--------2-----2------------------
G|--2-----2--------2---------------------
D|---------------------------------------
A|---------------------------------------
E|---------------------------------------

Stave 3:

E|--2--4-------9p7-------------------------
B|--2--4--9p7-------9p7--9--9h10p9--7h9p7--
G|--2--4-----------------------------------
D|--4--6-----------------------------------
A|--5--7-----------------------------------
E|-----------------------------------------

Stave 4:

E|--------------------9--7h9p7----------
B|--7h9--7--10--9--7--------------------
G|--------------------------------------
D|--------------------------------------
A|--------------------------------------
E|--------------------------------------

Stave 5:

E|--7-----------12--10--9---------------
B|-----10--9---------------12--10--9----
G|--------------------------------------
D|--------------------------------------
A|--------------------------------------
E|--------------------------------------

Stave 6:

E|--2--2--10--9h10p9------------------------------
B|--2--2--------------12--10--9------------10--9--
G|--2--2-------------------------11--9--8---------
D|--4--4------------------------------------------
A|--5--5------------------------------------------
E|------------------------------------------------

Stave 7:

E|--2--10--9h10p9------------------------------
B|--2--------------12--10--9------------10--9--
G|--2-------------------------11--9--8---------
D|--4------------------------------------------
A|--5------------------------------------------
E|---------------------------------------------

Stave 8:

E|--4--4------------------2--2-----------------
B|--4--4------------------2--2-----------------
G|--4--4------------------2--2-----------------
D|--6--6--7h9-------------4--4--5h7------------
A|--7--7-------9h11-------5--5-------7h9-------
E|-------------------7h9------------------5h7--

Stave 9:

E|--4--4------------------2--2------------------
B|--4--4------------------2--2------------------
G|--4--4------------------2--2------------------
D|--6--6--7h9-------------4--4------------------
A|--7--7-------9h11-------5--5------------------
E|-------------------7h9------------------------

Stave 10:

E|----------------------------------------------
B|----------------------------------------------
G|--7--6h7p6------------------------------------
D|------------9--7--6-----------7--6------------
A|---------------------9--7--6------------------
E|----------------------------------------------

Stave 11:

E|--4--4-----------------------------------------------
B|--4--4-----------------------------------------------
G|--4--4--9--7--6--------------------------------------
D|--6--6-----------9--7--6-----------------------------
A|--7--7--------------------9--7--6--------------------
E|-----------------------------------7-----------------

Stave 12:

E|--2--2------------------------------------------
B|--2--2------------------------------------------
G|--2--2--7--6h7p6--------------------------------
D|--4--4------------9--7--6-----------7--6--------
A|--5--5---------------------9--7--6--------------
E|------------------------------------------------

Stave 13:

E|--4--4----------------------------------------
B|--4--4----------------------------------------
G|--4--4--9--7h9p7--6h7p6-----------------------
D|--6--6-------------------7h9p7--6h7p6---------
A|--7--7---------------------------------7h9p7--
E|----------------------------------------------

Stave 14:

E|----------------------------------------------
B|----------------------------------------------
G|--7--6----------------------------------------
D|--------7h9p7--6h7p6-------------------6h7p6--
A|----------------------7h9p7-------7h9---------
E|-----------------------------7h9--------------

Stave 15:

E|--0--0---------------------------------------
B|--0--0---------------------------------------
G|--1--1-----1h2/4--2h4p2--1-------------------
D|--2--2--2-------------------2--0h2p0--0------
A|--2--2---------------------------------------
E|--0--0---------------------------------------

Stave 16:

E|--5--3--2-----2-------------------------------
B|-----------5-----5--3--2--3--2-----0--3-5--5--
G|--------------------------------2-----2/4--4--
D|----------------------------------------------
A|----------------------------------------------
E|----------------------------------------------

Stave 17:

E|--------------------------
B|--------------7--------7--
G|-----7-----------7--------
D|--------7-----------------
A|--9--------9--------9-----
E|--------------------------

Stave 18:

E|--------------------------
B|--------------2--------0--
G|-----2-----------2--------
D|--------2-----------2-----
A|--4--------4--------------
E|--------------------------

Stave 19:

E|--0--0--------------------------
B|--0--0--------------------------
G|--1--1--------------------------
D|--2--2--------------------------
A|--2--2--------------0-----------
E|--0--0--0--2--3--4-----4--3--2--

Stave 20:

E|--7--7--2--2--0--0--0--0--
B|--7--7--2--2--0--0--0--0--
G|--7--7--2--2--1--1--1--1--
D|--7--7--2--2--2--2--2--2--
A|--9--9--4--4--2--2--2--2--
E|--------------0--0--0--0--

Stave 21:

E|--------------------------------------------
B|--2--2---------------4--4-------------------
G|--2--2---------------4--4-------------------
D|--2--2-------2-------4--4-----1--4p1--------
A|--0--0--0h4-----4p0--2--2--2----------2--0--
E|--------------------------------------------

Stave 22:

E|-----------------12----------12------12--15p12--
B|------10--12p10------15--15------15-------------
G|--11--------------------------------------------
D|------------------------------------------------
A|------------------------------------------------
E|------------------------------------------------

Stave 23:

E|--12-----12------------12-----
B|--15b17--17b15--12h15--15b17--
G|------------------------------
D|------------------------------
A|------------------------------
E|------------------------------

Stave 24:

E|--15p12------12-------------------------------
B|---------15------15p12--15p12------12---------
G|-------------------------------14------14p12--
D|----------------------------------------------
A|----------------------------------------------
E|----------------------------------------------

Stave 25:

E|--12--12---------12--10--9--9h10p9------9--
B|----------10--9---------------------10-----
G|-------------------------------------------
D|-------------------------------------------
A|-------------------------------------------
E|-------------------------------------------

Stave 26:

E|--9h10p9-------------------------------------------
B|----------12--10--9------------------------9h10p9--
G|---------------------11--9--8--------9h11----------
D|-------------------------------9/11----------------
A|---------------------------------------------------
E|---------------------------------------------------

Stave 27:

E|----------------------------------------------
B|--------------0--------0----------------------
G|--------1--------1----------------------------
D|-----2----------------------------------------
A|--2--------2--------2-------------------------
E|----------------------------------------------

Stave 28:

E|--
B|--
G|--
D|--
A|--
E|--

http://www.guitartabcreator.com
Guitar Tab Creator is intended to store guitar tab created through the tool. It currently does not support in-line text editing. Any text you place in here will be lost. If you need to comment on your tab, please use the "Tab Notes" section located below.