Sound will begin in 5 seconds

For the better Pt. 1

01234567891011121314151617181920212223
E
B
G
D
A
E
B
0 1 2 3 4 5 6 7 8 9 10 11 12 13 14 15 16 17 18 19 20 21 22 23
Song Science #1: How Pros Use 6 Chords to Write Hit Songs
(/) Slide Up  (\) Slide Down  (h) Hammer On  (p) Pull Off  (b) Bend (r) Release (v) Vibrato

Stave 1:

Gb|-------------------------------------------------------------------------------------------------------
B |--0--2--3--0--2--3--5--0-----3--0-----0-----0-----0--2--3--0--2--3--5--0-------------------------------
Gb|--------------------------2--------1-----1-----1--------------------------5--5--5--10--10--10--10--10--
B |-------------------------------------------------------------------------------------------------------
E |-------------------------------------------------------------------------------------------------------
Ab|-------------------------------------------------------------------------------------------------------

Stave 2:

Gb|--------------------------------------------------------------
B |--------------1--1--1--1--------------1--1--1--1--1--1--1--1--
Gb|--10--10--10--------------11--11--11--------------------------
B |--------------------------------------------------------------
E |--------------------------------------------------------------
Ab|--------------------------------------------------------------

Stave 3:

Gb|--------------------------------------------------------------------------
B |-----8--0-----7--0-----5--0--2--3--0--2--3--5--0--2--3--0--2--3--5-----3--
Gb|--7--------5--------3-----------------------------------------------2-----
B |--------------------------------------------------------------------------
E |--------------------------------------------------------------------------
Ab|--------------------------------------------------------------------------

Stave 4:

Gb|--------------------------------------------------------------------------------------------------
B |--0--2--3--2--3--5--0--2--3--2--3--5-----3-----2--0--2--3--0--2--3--5--0--2--3--0--2--3--5-----3--
Gb|--------------------------------------2-----1-----------------------------------------------2-----
B |--------------------------------------------------------------------------------------------------
E |--------------------------------------------------------------------------------------------------
Ab|--------------------------------------------------------------------------------------------------

Stave 5:

Gb|--------------------------------------------
B |--0--2--3--2--3--5--0--2--3--2--------------
Gb|--------------------------------10--10--10--
B |--------------------------------------------
E |--------------------------------------------
Ab|--------------------------------------------

Stave 6:

Gb|--------------------------------------------------------------------------------------------------
B |--0--2--3--2--3--5--0--2--3--2--3--5-----3-----2--0--2--3--0--2--3--5--0--2--3--0--2--3--5-----3--
Gb|--------------------------------------2-----1-----------------------------------------------2-----
B |--------------------------------------------------------------------------------------------------
E |--------------------------------------------------------------------------------------------------
Ab|--------------------------------------------------------------------------------------------------

Stave 7:

Gb|--------------------------------------------------------------------------------------------------
B |--0--2--3--2--3--5--0--2--3--2--3--5-----3-----2--0--2--3--0--2--3--5--0--2--3--0--2--3--5-----3--
Gb|--------------------------------------2-----1-----------------------------------------------2-----
B |--------------------------------------------------------------------------------------------------
E |--------------------------------------------------------------------------------------------------
Ab|--------------------------------------------------------------------------------------------------

Stave 8:

Gb|-------------------------------------------------------------------------
B |---------3----6----3/6---------3----6------3/6---------3----6----3/6-----
Gb|--5---------------------5-----------------------5---------------------5--
B |-------------------------------------------------------------------------
E |-------------------------------------------------------------------------
Ab|-------------------------------------------------------------------------

Stave 9:

Gb|-----------------------------------------------------------------------------------------------
B |--0--0--0--0--0--0--0--0--0--0--0--0--0--0--3/6-----0--0--0--0--3----0--0--6--0--0--0--3/6-----
Gb|-------------------------------------------------5------------------------------------------5--
B |-----------------------------------------------------------------------------------------------
E |-----------------------------------------------------------------------------------------------
Ab|-----------------------------------------------------------------------------------------------

Stave 10:

Gb|------------------------------------------------------------------------------------
B |--0--0--0--0--3--0--0--6--0--0--0--3/6-----0--0--0--0--3--0--0--6--0--0--0--3/6-----
Gb|----------------------------------------5----------------------------------------5--
B |------------------------------------------------------------------------------------
E |------------------------------------------------------------------------------------
Ab|------------------------------------------------------------------------------------

Stave 11:

Gb|---------------------------------------------------------------------------------
B |--0--0--0--0--3--0--0--6--0--0--0--3/6-----0--0--0--0--3--0--0--6--0--0--0--3/6--
Gb|----------------------------------------5----------------------------------------
B |---------------------------------------------------------------------------------
E |---------------------------------------------------------------------------------
Ab|---------------------------------------------------------------------------------

Stave 12:

Gb|-----------------------------------------------------------------------------------------
B |--2--2--2--2--2--2--2--0--0--0--0--0--8--8--7--7--7--7--7--3--3--5--5--5--5--5--5--5--5--
Gb|-----------------------------------------------------------------------------------------
B |-----------------------------------------------------------------------------------------
E |-----------------------------------------------------------------------------------------
Ab|-----------------------------------------------------------------------------------------

Stave 13:

Gb|--5--5--5--5--5--------------------------------------------------------------------------------
B |-----------------3--3--5--5--5--5--5--7--7--8--8--8--8--8--8--8--8--8--7--7--7--7--7--7--7--7--
Gb|-----------------------------------------------------------------------------------------------
B |-----------------------------------------------------------------------------------------------
E |-----------------------------------------------------------------------------------------------
Ab|-----------------------------------------------------------------------------------------------

Stave 14:

Gb|-----------------------------------------------------------------------------------------
B |-----------------7--7--8--8--8--8--8--5--5--3--3--3--3--3--0--3--7--7--7--7--7--7--7--7--
Gb|--5--5--5--5--5--------------------------------------------------------------------------
B |-----------------------------------------------------------------------------------------
E |-----------------------------------------------------------------------------------------
Ab|-----------------------------------------------------------------------------------------

Stave 15:

Gb|--5--5--5--5--5--------------------------------------------------------------------------
B |-----------------3--3--5--5--5--5--5--7--7--8--8--8--8--8--8--8--7--7--7--7--7--7--7--7--
Gb|-----------------------------------------------------------------------------------------
B |-----------------------------------------------------------------------------------------
E |-----------------------------------------------------------------------------------------
Ab|-----------------------------------------------------------------------------------------

http://www.guitartabcreator.com
Guitar Tab Creator is intended to store guitar tab created through the tool. It currently does not support in-line text editing. Any text you place in here will be lost. If you need to comment on your tab, please use the "Tab Notes" section located below.