So Easy To Love

Chords
01234567891011121314151617181920212223
E
B
G
D
A
E
B
0 1 2 3 4 5 6 7 8 9 10 11 12 13 14 15 16 17 18 19 20 21 22 23
(/) Slide Up  (\) Slide Down  (h) Hammer On  (p) Pull Off  (b) Bend (r) Release (v) Vibrato

E|---------1-3---------3-6---------6-8-
B|-----1-3---------3-6---------6-8-----
G|-1-3---------3-6---------6-8---------
D|-------------------------------------
A|-------------------------------------
E|-------------------------------------



E|---------1-3---------3-6---------6-3---------6-3-
B|-----1-3---------3-6---------6-3---------6-3-----
G|-1-3---------3-6---------6-3---------6-3---------
D|-------------------------------------------------
A|-------------------------------------------------
E|-------------------------------------------------



E|-
B|-
G|-
D|-
A|-
E|-
							http://www.guitartabcreator.com

Member for

8 years 9 months
Submitted by Ranik Tora9 on Fri, 2011-08-05 20:26