Sound will begin in 5 seconds

Michel Pagliaro L'espion---(solo)---

01234567891011121314151617181920212223
E
B
G
D
A
E
B
0 1 2 3 4 5 6 7 8 9 10 11 12 13 14 15 16 17 18 19 20 21 22 23
Song Science #1: How Pros Use 6 Chords to Write Hit Songs
(/) Slide Up  (\) Slide Down  (h) Hammer On  (p) Pull Off  (b) Bend (r) Release (v) Vibrato

Stave 1:

E|--8p10p9--8--6p8-----6-------3------------------3--------------------------------8h10p
B|------------------8-----6b8-----3p6-------3--6-----3p6----------------------7h8-------
G|-------------------------------------5b6----------------5--3v--6v--6v--6/7------------
D|--------------------------------------------------------------------------------------
A|--------------------------------------------------------------------------------------
E|--------------------------------------------------------------------------------------

Stave 2:

E|--8------------8----------------------------------------3-----------8b10--8b10--6--8--
B|-----8--11b13-----8--11b13---------------------------------------8--------------------
G|----------------------------10--8------10--8------------------------------------------
D|-----------------------------------10---------10--8--5-----5--5-----------------------
A|--------------------------------------------------------------------------------------
E|--------------------------------------------------------------------------------------

Stave 3:

E|--8b10b8--6--------5------------5--------------------------------------------------------
B|-------------8b10-----5p8--8b9-----5p8-----5----------------------------11--11v--\12/18--
G|----------------------------------------7-----5p7-----5----------10/12-------------------
D|---------------------------------------------------7-----5p7--7--------------------------
A|-----------------------------------------------------------------------------------------
E|-----------------------------------------------------------------------------------------

Stave 4:

E|--------------------------
B|--13b15--11--11--6-----8--
G|--------------------7-----
D|--------------------------
A|--------------------------
E|--------------------------

http://www.guitartabcreator.com
Guitar Tab Creator is intended to store guitar tab created through the tool. It currently does not support in-line text editing. Any text you place in here will be lost. If you need to comment on your tab, please use the "Tab Notes" section located below.