Sound will begin in 5 seconds

Caline de blues---offenbach---(solo)

01234567891011121314151617181920212223
E
B
G
D
A
E
B
0 1 2 3 4 5 6 7 8 9 10 11 12 13 14 15 16 17 18 19 20 21 22 23
Song Science #1: How Pros Use 6 Chords to Write Hit Songs
(/) Slide Up  (\) Slide Down  (h) Hammer On  (p) Pull Off  (b) Bend (r) Release (v) Vibrato

Stave 1:

E|--------------------------------------------------------------------
B|--------------------------------------------------------------------
G|------9-11-9-7/9----9-11b13-9----9-9v-9----9h11p9------------9-11-9-
D|-7/11------------11-----------11--------11--------------7/11--------
A|--------------------------------------------------9b10--------------
E|--------------------------------------------------------------------

Stave 2:

E|-------------------9----9---------------------------------------------------------------
B|---------------------12-----------------------------------------------------------------
G|-9----9-11-9-11b13--------11b13h9----9h11p9-9-9-9-4/6-4-2-4-4b5p2-2h4-------------------
D|---11-----------------------------11----------------------------------------------------
A|----------------------------------------------------------------------------------------
E|----------------------------------------------------------------------------------------

Stave 3:

E|---------------------------------10-------------10-----------------------
B|------10-12-10-12b14-12b14p10-------12b14p10-----------------------------
G|------------------------------13-------------13----13p14----11-9-13-11v-\
D|-7/11----------------------------------------------------14--------------
A|-------------------------------------------------------------------------
E|-------------------------------------------------------------------------

http://www.guitartabcreator.com
Guitar Tab Creator is intended to store guitar tab created through the tool. It currently does not support in-line text editing. Any text you place in here will be lost. If you need to comment on your tab, please use the "Tab Notes" section located below.