Sound will begin in 5 seconds

And 50 Cents Gets You Coffee

01234567891011121314151617181920212223
E
B
G
D
A
E
B
0 1 2 3 4 5 6 7 8 9 10 11 12 13 14 15 16 17 18 19 20 21 22 23
Song Science #1: How Pros Use 6 Chords to Write Hit Songs
(/) Slide Up  (\) Slide Down  (h) Hammer On  (p) Pull Off  (b) Bend (r) Release (v) Vibrato

Stave 1:

E|-------------------------------------------------------------------------------------|--
B|-------------------------------------------------------------------------------------|--
G|-------------------------------------------------------------------------------------|--
D|--------------2-----2--4--4-----4--4/6--6-------------------2-----2--4/6--4--2--2----|--
A|--2-----2--4-----0-----------2------------------2-----2--4-----0----------2--0-------|--
E|-----0-------------------------------------0-------0----------------------------0----|--

Stave 2:

E|--0--------0--0--2--4--------------------0--0--2--4----------------0------0--0--2--4----------------|--
B|-----0-----0--0-------------------2------0--0----------------------0------0--0-------------------2--|--
G|--------1--------------4--4--4----2------------------4--4--4----2---------------------4--4--4----2--|--
D|-----------------1--2--2--2--2----2------------1--2--2--2--2----2---------------1--2--2--2--2----2--|--
A|-----------4----------------------0------4--------------------------------4----------------------0--|--
E|-----------------------4--4--4-----------------------4--4--4----2---------------------4--4--4-------|--

Stave 3:

E|-----0-----0-----0-----|-----0-----0-----0----------|--
B|--------------------7--|--------------------0--5/7--|--
G|--4-----2-----3-----6--|--4-----2-----3--------6-8--|--
D|--2-----2-----2-----7--|--2-----2-----2--------7-9--|--
A|-----------------------|----------------------------|--
E|-----------------------|----------------------------|--

Stave 4:

E|---------------------------------------------------------------------------------------------------------
B|--9-----7--7-----5--5---------------------0--4-----5/7\5----------------9-----7--7-----5--5--------------
G|--9-----8--8-----6--6-----6--6-------1/2-----4-----6-8-6----------------9-----8--8-----6--6-----6--6-----
D|--9-----9--9--------------7--7-------2-4--------------------------------9-----9--9--------------7--7-----
A|-----------------------0----------------------------------0----0-----------------------------0-----------
E|-----0--------7-----------------7---------------4-----------------0--7-----0--------7-----------------7--

Stave 5:

E|---------------------|-------------------------
B|-------0-------------|-------0-----------------
G|--1/2----------------|--1/2--------------------
D|--2-4-----2----4--4--|--2-4-----2--4-----2-----
A|----------2----2--2--|----------2-----2--------
E|---------------------|----------------------0--

Stave 6:

E|-------------0---------------0--2--4-------------0--2--4--4/7------4-------------------|--
B|-----2-------0-------2-------0-----------2-------0-----------------5--5/7--7--7--7--7--|--
G|--4--2----4--1----4--2----4--1--------4--2----4--1-----------------6--6-8--8--8--8--8--|--
D|--2--2----2-------2--2----2-----1--2--2--2----2-----1--2--------------7-9--9--9--9--9--|--
A|-----0-------4-------0-------4-----------0-------4-------------------------------------|--
E|--4-------4-------4-------4-----------4-------4-------------5--------------------------|--

http://www.guitartabcreator.com
Guitar Tab Creator is intended to store guitar tab created through the tool. It currently does not support in-line text editing. Any text you place in here will be lost. If you need to comment on your tab, please use the "Tab Notes" section located below.