Sound will begin in 5 seconds

Song yo

01234567891011121314151617181920212223
E
B
G
D
A
E
B
0 1 2 3 4 5 6 7 8 9 10 11 12 13 14 15 16 17 18 19 20 21 22 23
Song Science #1: How Pros Use 6 Chords to Write Hit Songs
(/) Slide Up  (\) Slide Down  (h) Hammer On  (p) Pull Off  (b) Bend (r) Release (v) Vibrato

Stave 1:

E|------------------------------------------------------------------------------------------
B|------------------------------------------------------------------------------------------
G|------------------------------------------------------------------------------------------
D|------------------------------------------------------------------------------------------
A|--0h2h4--4--4--4--4--4--2h3p3--4--4--4--4--4--0h2h4--4--4--4--4--4--2h3p3-----------------
E|---------------------------------------------------------------------------4--2--2--2--2--

Stave 2:

E|----------------------------------------|----------------------------------------|--
B|----------------------------------------|----------------------------------------|--
G|--4--6--6--6--6--6----------------------|--4--6--6--6--6--6----------------------|--
D|--4--6--6--6--6--6-------6--6--6--6--6--|--4--6--6--6--6--6-------6--6--6--6--6--|--
A|--2--4--4--4--4--4-------6--6--6--6--6--|--2--4--4--4--4--4-------6--6--6--6--6--|--
E|--------------------5p5--4--4--4--4--4--|--------------------5p5--4--4--4--4--4--|--

Stave 3:

E|-----------------------------------------------------------------------------|--
B|-----------------------------------------------------------------------------|--
G|--4--6--6--6--6--6-----------------------------------------------------------|--
D|--4--6--6--6--6--6-------6--6--6--6--6--4--4--4--4--4--4---------2--2--2--2--|--
A|--2--4--4--4--4--4-------6--6--4--6--6--4--4--4--4--4--4---------2--2--2--2--|--
E|--------------------5p5--4--4--4--4--4--2--2--2--2--2--2--2h5p5--0--0--0--0--|--

Stave 4:

E|--------------------------------------------|-------------------------------------------|--
B|--------------------------------------------|-------------------------------------------|--
G|--------------------------------------------|-------------------------------------------|--
D|----------------------4h5p5-----------------|----------------------4h5p5--7/5--5--5--5--|--
A|--2\4--4--4--4--4--4---------5--5--5--5--5--|--2\4--4--4--4--4--4-----------------------|--
E|--------------------------------------------|-------------------------------------------|--

Stave 5:

E|-------------------------------------------------------------------------------------|--
B|---------------------------------------------------------------4h5p5-----------------|--
G|-----------------------------------------4h5p5------------------------5--5--5--5--5--|--
D|-------------------4h5p5------------------------5--5--5--5--5------------------------|--
A|--2\4--4--4--4--4---------5--5--5--5--5----------------------------------------------|--
E|-------------------------------------------------------------------------------------|--

Stave 6:

E|---------------------------------------|------------------------------------|--
B|---------------------------------------|------------------------------------|--
G|--4-6--6--6--6--6--6-------------------|--4-6--6--6--6--6-------------------|--
D|--4-6--6--6--6--6--6-------------------|--4-6--6--6--6--6--0h4h6--0h7--0h6--|--
A|--2\4--4--4--4--4--4--0h4h6--0h7--0h6--|--2\4--4--4--4--4-------------------|--
E|---------------------------------------|------------------------------------|--

Stave 7:

E|-------------------------------------------------------------------------|--
B|-------------------------------------------------------------------------|--
G|--4-6--6--6--6--6--6-----------------------------------------------------|--
D|--4-6--6--6--6--6--6-------------------------------------------0h7--0h6--|--
A|--2\4--4--4--4--4--4--0h4h6--0h7--0h6--0h4h6--0h7--0h6--0h4h6------------|--
E|-------------------------------------------------------------------------|--

http://www.guitartabcreator.com
Guitar Tab Creator is intended to store guitar tab created through the tool. It currently does not support in-line text editing. Any text you place in here will be lost. If you need to comment on your tab, please use the "Tab Notes" section located below.