Sound will begin in 5 seconds

Pentatonic 1

01234567891011121314151617181920212223
E
B
G
D
A
E
B
0 1 2 3 4 5 6 7 8 9 10 11 12 13 14 15 16 17 18 19 20 21 22 23
Song Science #1: How Pros Use 6 Chords to Write Hit Songs
(/) Slide Up  (\) Slide Down  (h) Hammer On  (p) Pull Off  (b) Bend (r) Release (v) Vibrato

Stave 1:

E|-------------------------------------0h7h8--
B|------------------------------0h7h8---------
G|-----------------------0h7h8----------------
D|----------------0h7h8-----------------------
A|---------0h7h8------------------------------
E|--0h7h8-------------------------------------

Stave 2:

E|--0h7h8-------------------------------------
B|---------0h7h8------------------------------
G|----------------0h7h8-----------------------
D|-----------------------0h7h8----------------
A|------------------------------0h7h8---------
E|-------------------------------------0h7h8--

Stave 3:

E|-------------------------------------0h7h9--
B|------------------------------0h7h9---------
G|-----------------------0h7h9----------------
D|----------------0h7h9-----------------------
A|---------0h7h9------------------------------
E|--0h7h9-------------------------------------

Stave 4:

E|--0h7h9-------------------------------------
B|---------0h7h9------------------------------
G|----------------0h7h9-----------------------
D|-----------------------0h7h9----------------
A|------------------------------0h7h9---------
E|-------------------------------------0h7h9--

Stave 5:

E|-------------------------------------------0h7h10--
B|-----------------------------------0h7h10----------
G|---------------------------0h7h10------------------
D|-------------------0h7h10--------------------------
A|-----------0h7h10----------------------------------
E|--0--7h10------------------------------------------

Stave 6:

E|--0h7h10------------------------------------------
B|----------0h7h10----------------------------------
G|------------------0h7h10--------------------------
D|--------------------------0h7h10------------------
A|----------------------------------0h7h10----------
E|------------------------------------------0h7h10--

http://www.guitartabcreator.com
Guitar Tab Creator is intended to store guitar tab created through the tool. It currently does not support in-line text editing. Any text you place in here will be lost. If you need to comment on your tab, please use the "Tab Notes" section located below.