Sound will begin in 5 seconds

Adios To California

01234567891011121314151617181920212223
E
B
G
D
A
E
B
0 1 2 3 4 5 6 7 8 9 10 11 12 13 14 15 16 17 18 19 20 21 22 23
Song Science #1: How Pros Use 6 Chords to Write Hit Songs
(/) Slide Up  (\) Slide Down  (h) Hammer On  (p) Pull Off  (b) Bend (r) Release (v) Vibrato

Stave 1:

E|--12--10--9---------------
B|-------------12--10-------
G|---------------------9b7--
D|--------------------------
A|--------------------------
E|--------------------------

Stave 2:

E|-----------------
B|--10r7-----------
G|--------9--9b11--
D|-----------------
A|-----------------
E|-----------------

Stave 3:

E|------------------------
B|--7--9--10--14--12--10--
G|------------------------
D|------------------------
A|------------------------
E|------------------------

Stave 4:

E|---------
B|--7r5h7--
G|---------
D|---------
A|---------
E|---------

Stave 5:

E|--14--12-------------------------
B|----------15--14--14--12---------
G|--------------------------14b14--
D|---------------------------------
A|---------------------------------
E|---------------------------------

Stave 6:

E|-------------------
B|--7--5-----5b5--7--
G|--------7----------
D|-------------------
A|-------------------
E|-------------------

Stave 7:

E|--14--12--10--10--9------
B|---------------------12--
G|-------------------------
D|-------------------------
A|-------------------------
E|-------------------------

Stave 8:

E|------------------
B|--6/7h10r10r7-----
G|---------------9--
D|------------------
A|------------------
E|------------------

Stave 9:

E|------9--10--12--14--15--
B|--12---------------------
G|-------------------------
D|-------------------------
A|-------------------------
E|-------------------------

Stave 10:

E|--14--12------------------
B|----------15--14--12------
G|----------------------14--
D|--------------------------
A|--------------------------
E|--------------------------

http://www.guitartabcreator.com
Guitar Tab Creator is intended to store guitar tab created through the tool. It currently does not support in-line text editing. Any text you place in here will be lost. If you need to comment on your tab, please use the "Tab Notes" section located below.