Sound will begin in 5 seconds

OneNavi Solo

01234567891011121314151617181920212223
E
B
G
D
A
E
B
0 1 2 3 4 5 6 7 8 9 10 11 12 13 14 15 16 17 18 19 20 21 22 23
Song Science #1: How Pros Use 6 Chords to Write Hit Songs
(/) Slide Up  (\) Slide Down  (h) Hammer On  (p) Pull Off  (b) Bend (r) Release (v) Vibrato

Stave 1:

E|-----------------------------------------------------------------------------------------------------------
B|-------------------------------------------------------------------12--------------------------------------
G|-----7--7--------------------------------------------5--7-----5/8------14--12--------------12--------------
D|--9--------9--7------7------7------9--7--9--9--7--9--------5-------------------14--12--14------14--12--14--
A|-----------------10-----10-----10--------------------------------------------------------------------------
E|-----------------------------------------------------------------------------------------------------------

Stave 2:

E|----------------------------------------------------------------------------------------------------
B|--------------------------------------12------15b17b15--15b17b15--15b17b15--15b17b15--15b17b15--17--
G|--11--------------------------12--14------14--------------------------------------------------------
D|------14--12--------------12------------------------------------------------------------------------
A|--------------14--12--14----------------------------------------------------------------------------
E|----------------------------------------------------------------------------------------------------

Stave 3:

E|--12--16--17--17--17--17--17--17--17--17--17--19--19--17--17--19--19--17--17--19--19--19--19--
B|--0---0---0---0---0---0---0---0---0---0---0---0---0---0---0---0---0---0---0---0---0---0---0---
G|----------------------------------------------------------------------------------------------
D|----------------------------------------------------------------------------------------------
A|----------------------------------------------------------------------------------------------
E|----------------------------------------------------------------------------------------------

http://www.guitartabcreator.com
Guitar Tab Creator is intended to store guitar tab created through the tool. It currently does not support in-line text editing. Any text you place in here will be lost. If you need to comment on your tab, please use the "Tab Notes" section located below.