Nuff Said-Thrid Riff

Chords
01234567891011121314151617181920212223
E
B
G
D
A
E
B
0 1 2 3 4 5 6 7 8 9 10 11 12 13 14 15 16 17 18 19 20 21 22 23
(/) Slide Up  (\) Slide Down  (h) Hammer On  (p) Pull Off  (b) Bend (r) Release (v) Vibrato


E|--------------------------------------------------------------------
B|--------------------------------------------------------------------
G|--------------------------------------------------------------------
D|-----------------4-----------------4-----------------4--------------
A|--x-----------------x-----------------x-----------------x-----x-----
E|--x--2--0--2--0-----x--2--0--2--0-----x--2--0--2--0-----x--2--x--2--




E|--------------------------------------------------------------------
B|--------------------------------------------------------------------
G|--------------------------------------------------------------------
D|-----------------4-----------------4-----------------4--------------
A|--x-----------------x-----------------x-----------------x-----------
E|--x--2--0--2--0-----x--2--0--2--0-----x--2--0--2--0-----x--2--2--2--
[[],[],[],[],[],[]]

Member for

8 years
Submitted by pitbulltodd on Mon, 2012-09-10 20:22