Sound will begin in 5 seconds

Mum - Spitfireliar (Bass Tabs)

01234567891011121314151617181920212223
E
B
G
D
A
E
B
0 1 2 3 4 5 6 7 8 9 10 11 12 13 14 15 16 17 18 19 20 21 22 23
Song Science #1: How Pros Use 6 Chords to Write Hit Songs
(/) Slide Up  (\) Slide Down  (h) Hammer On  (p) Pull Off  (b) Bend (r) Release (v) Vibrato

Stave 1:

E|--------------------------------------------------------------
B|--------------------------------------------------------------
G|--------------------------------------------------------------
D|--------------------------------------------------------------
A|--------------7--7--7--7--6--6--6--6--------------------------
E|--5--5--5--5--------------------------8--8--8--8--3--3--3--3--

Stave 2:

E|----------------------------
B|----------------------------
G|----------------------------
D|----------------------------
A|----------------------------
E|--5------5------5--5--5--5--

Stave 3:

E|-----------------------------------
B|-----------------------------------
G|-----------------------------------
D|-----------------------------------
A|-----------7-----6--3--6--3--0-----
E|--5--5--5-----8-----------------3--

Stave 4:

E|--------------------------------------------------------
B|--------------------------------------------------------
G|--------------------------------------------------------
D|--------------------------------------------------------
A|--------------------------------------------------------
E|--3--0--0--0--3--0--0--0--3--0--0--5--0--0--8--7--5--4--

Stave 5:

E|-------------------------
B|-------------------------
G|-------------------------
D|-------------------------
A|-------------------------
E|--0--0--0--12\0----0/11--

http://www.guitartabcreator.com
Guitar Tab Creator is intended to store guitar tab created through the tool. It currently does not support in-line text editing. Any text you place in here will be lost. If you need to comment on your tab, please use the "Tab Notes" section located below.