?

(/) Slide Up  (\) Slide Down  (h) Hammer On  (p) Pull Off  (b) Bend (r) Release (v) Vibrato

Stave 1:

E|-----------------------------------------------------------------------------
B|-----------------------------------------------------------------------------
G|-----------------------------------------------------------------------------
D|-----------------------------------------------------------------------------
A|----12----11----10----9------8------7------6-----5-----4-----3-----2-----1---
E|-13----12----11----10---12-9---11-8---10-7---9-6---8-5---7-4---6-3---5-2---4-

Stave 2:

E|------------------------------------------------
B|------------------------------------------------
G|------------------------------------------------
D|---------------5---------------------7/--9/--10-
A|---2---------3-------5-----5/--7---5---7---8----
E|-0---0-0-0-0-----0-3---0-3---5---0--------------

Stave 3:

E|-----------------------------------------------------------------------------------
B|-----------------------------------------------------------------------------------
G|-----------------------------------------------------------------------------------
D|---10-------9-------8-------7-----10---9---8---7---10---9---8---7---10---9---8---7-
A|-8----0-0-7---0-0-6---0-0-5-----8----7---6---5---8----7---6---5---8----7---6---5---
E|-----------------------------------------------------------------------------------

Stave 4:

E|-
B|-
G|-
D|-
A|-
E|-

http://www.guitartabcreator.com
Guitar Tab Creator is intended to store guitar tab created through the tool. It currently does not support in-line text editing. Any text you place in here will be lost. If you need to comment on your tab, please use the "Tab Notes" section located below.