Sound will begin in 5 seconds

Exmag - We Run Shit

01234567891011121314151617181920212223
E
B
G
D
A
E
B
0 1 2 3 4 5 6 7 8 9 10 11 12 13 14 15 16 17 18 19 20 21 22 23
Song Science #1: How Pros Use 6 Chords to Write Hit Songs
(/) Slide Up  (\) Slide Down  (h) Hammer On  (p) Pull Off  (b) Bend (r) Release (v) Vibrato

Stave 1:

E|-----------------------------------------------------------------------------------------4/5--3--
B|--------------------------------------------------------------------------------------6----------
G|-------5-----5--5-----5--7-------5-----5--5-----5--7-------5-----5--5-----5--7--5--7-------------
D|--5/7-----7--------7--------5/7-----7--------7--------5/7-----7--------7-------------------------
A|-------------------------------------------------------------------------------------------------
E|-------------------------------------------------------------------------------------------------

Stave 2:

E|-----3--------------------
B|--6-----6--3--------------
G|--------------5--2--------
D|--------------------5--3--
A|--------------------------
E|--------------------------

Stave 3:

E|--------------------------------------------------------------------------------------------------10--
B|--------------------------------------------------------------------------------------6--8b9--10------
G|-------5-----5--5-----5--7-------5-----5--5-----5--7-------5-----5--5-----5--7--5--7------------------
D|--5/7-----7--------7--------5/7-----7--------7--------5/7-----7--------7------------------------------
A|------------------------------------------------------------------------------------------------------
E|------------------------------------------------------------------------------------------------------

Stave 4:

E|--8----------------------------------------
B|-----10--8b9--8--6-------------------------
G|--------------------7--5-------------------
D|--------------------------7--5--------5\3--
A|--------------------------------8--5-------
E|-------------------------------------------

Stave 5:

E|--14b15--12b13--10------------------------------------------------------------------------------------
B|--------------------13--10----------------------------------------------------------------------------
G|----------------------------12--10------12/14--10/12--10------10b11-----------------------------------
D|------------------------------------12--------------------12---------12--10---------------------------
A|-----------------------------------------------------------------------------12--10----------8b9------
E|-------------------------------------------------------------------------------------13--10-------10--

Stave 6:

E|-------------------------------------------------------------------------16b17--14b15--13------13b14--
B|-------------------------------------------------------------------------------------------15---------
G|--12/14--10/12--10--7--12b13--12--10------10b11-------------------------------------------------------
D|--------------------------------------12---------12--10-----------------------------------------------
A|---------------------------------------------------------12--10--8------------------------------------
E|--------------------------------------------------------------------10v-------------------------------

Stave 7:

E|------------------------------------------------------------------------------------------13--15--17--
B|--15--13--------------------------------------------------------------------------13--15--------------
G|----------14--12--10------10--12--12h14--10h12--10------10b11------10--12--12/14----------------------
D|----------------------12----------------------------12---------12-------------------------------------
A|------------------------------------------------------------------------------------------------------
E|------------------------------------------------------------------------------------------------------

Stave 8:

E|--15--19b20--17----------------------------------------------------
B|-----------------20--18--20--18----------20--18--18b19-------------
G|---------------------------------19--17-----------------19--17--19\
D|-------------------------------------------------------------------
A|-------------------------------------------------------------------
E|-------------------------------------------------------------------

http://www.guitartabcreator.com
Guitar Tab Creator is intended to store guitar tab created through the tool. It currently does not support in-line text editing. Any text you place in here will be lost. If you need to comment on your tab, please use the "Tab Notes" section located below.