Sound will begin in 5 seconds

My Jesus, I Love Thee

01234567891011121314151617181920212223
E
B
G
D
A
E
B
0 1 2 3 4 5 6 7 8 9 10 11 12 13 14 15 16 17 18 19 20 21 22 23
Song Science #1: How Pros Use 6 Chords to Write Hit Songs
(/) Slide Up  (\) Slide Down  (h) Hammer On  (p) Pull Off  (b) Bend (r) Release (v) Vibrato

Stave 1:

E|------------------------------------------------------------------------------------3--3--3--3-----------------
B|-----------1--3--5----5--3----1--3/5--5--8--5--3--1--3-----1--3--1--3--5----5-------5--5--5--5----1----15--17--
G|-----0--2--------5----5--3------------5--------3--------2--------1-----5----5--4----4--4--4--4----0------------
D|--2--------------3----3--0------------3--------0--------3--------3-----3----3--3----3--3--3--3----2------------
A|-----------------5----5--3------------5--------3--------3--------3-----5----5--5------------------3------------
E|--------------------------------------------------------1--------1-------------3-------------------------------

Stave 2:

E|--------------1-----------------------------------------------------
B|--1--3--5-----------6--5-----5--3--1--5--------3-----5--0-----8--6--
G|--------5--4--2--4--------5-----4--2--0--7--4-----0--------5--------
D|--------------0-----------------------------5-----------------------
A|--------3--------------3--------3--0--4--8--------3-----------------
E|--------------------------------------------------------------------

Stave 3:

E|--
B|--
G|--
D|--
A|--
E|--

http://www.guitartabcreator.com
Guitar Tab Creator is intended to store guitar tab created through the tool. It currently does not support in-line text editing. Any text you place in here will be lost. If you need to comment on your tab, please use the "Tab Notes" section located below.