Sound will begin in 5 seconds

Allen Electric Page 2

01234567891011121314151617181920212223
E
B
G
D
A
E
B
0 1 2 3 4 5 6 7 8 9 10 11 12 13 14 15 16 17 18 19 20 21 22 23
Song Science #1: How Pros Use 6 Chords to Write Hit Songs
(/) Slide Up  (\) Slide Down  (h) Hammer On  (p) Pull Off  (b) Bend (r) Release (v) Vibrato

Stave 1:

E|--------------------------------------------------------|------|---------------------------------------
B|--8--7--8--5----8--7--8--5----8--7--8--5----8--7--8--5--|------|---------------------------------------
G|--------------------------------------------------------|------|--9--7---------------------------------
D|--------------------------------------------------------|------|--------10--10--9--7--9--7-------------
A|--------------------------------------------------------|------|----------------------------10--10--9--
E|--------------------------------------------------------|------|---------------------------------------

Stave 2:

E|--12----12--12--10------------------------------------------------------------------|--
B|--------------------13--12----12--12--10------10----10--10--12----------------------|--
G|------------------------------------------12--------------------12--9----9--9--9----|--
D|------------------------------------------------------------------------------------|--
A|------------------------------------------------------------------------------------|--
E|------------------------------------------------------------------------------------|--

Stave 3:

E|--------------------------7-----------|--------------------------7-------------|--
B|-------------------8--10-----10--8----|-------------------8--10-----10----8----|--
G|---------8--9--11---------------------|---------8--9--11-----------------------|--
D|--9--11-------------------------------|--9--11---------------------------------|--
A|--------------------------------------|----------------------------------------|--
E|--------------------------------------|----------------------------------------|--

Stave 4:

E|----------------------------------------|----------------------------------11----15----|--
B|----------------------------------------|-------------------8--10----12----------------|--
G|---------8--9--11-----------8--9--11----|---------8--9--11-----------------------------|--
D|--9--11--------------9--11--------------|--9--11---------------------------------------|--
A|----------------------------------------|----------------------------------------------|--
E|----------------------------------------|----------------------------------------------|--

http://www.guitartabcreator.com
Guitar Tab Creator is intended to store guitar tab created through the tool. It currently does not support in-line text editing. Any text you place in here will be lost. If you need to comment on your tab, please use the "Tab Notes" section located below.