Sound will begin in 5 seconds

[A] Major Scale - Diamond Pattern Exercise - (Part 3)

01234567891011121314151617181920212223
E
B
G
D
A
E
B
0 1 2 3 4 5 6 7 8 9 10 11 12 13 14 15 16 17 18 19 20 21 22 23
Song Science #1: How Pros Use 6 Chords to Write Hit Songs
(/) Slide Up  (\) Slide Down  (h) Hammer On  (p) Pull Off  (b) Bend (r) Release (v) Vibrato

Stave 1:

E|-----------------------------4-5-|-5-4-2---------------------------|-------------------------------5-
B|-------------------------5-7-----|-------5-3-2---------------------|---------------------------7-9---
G|-------------------4-6-7---------|-------------4-2-2-1-------------|---------------------6-7-9-------
D|-----------4-6-7-7---------------|---------------------4-2---------|-------------6-7-7-9-------------
A|-----4-5-7-----------------------|-------------------------5-4-2---|-----4-5-7-9---------------------
E|-5-7-----------------------------|-------------------------------5-|-5-7-----------------------------

Stave 2:

E|-5-4-----------------------------|---------------------------2-4-5-|-5-4-----------------------------
B|-----7-5-3-----------------------|---------------------2-3-5-------|-----7-5-------------------------
G|-----------6-4-2-2---------------|-------------1-2-2-4-------------|---------7-6-4-------------------
D|-------------------6-4-2---------|---------2-4---------------------|---------------7-7-6-4-----------
A|-------------------------5-4-----|---2-4-5-------------------------|-----------------------7-5-4-----
E|-----------------------------7-5-|-5-------------------------------|-----------------------------7-5-

Stave 3:

E|-----------------------------4-5-|-5-------------------------------|-------------------------------5-
B|-----------------------3-5-7-----|---9-7---------------------------|---------------------------7-9---
G|---------------2-2-4-6-----------|-------9-7-6---------------------|---------------------6-7-9-------
D|---------2-4-6-------------------|-------------9-7-7-6-------------|-----------4-6-7-7-9-------------
A|-----4-5-------------------------|---------------------9-7-5-4-----|-----4-5-7-----------------------
E|-5-7-----------------------------|-----------------------------7-5-|-5-7-----------------------------

Stave 4:

E|-5-4-----------------------------|-----------------------------4-5-|-5-4-2---------------------------
B|-----7-5-3-----------------------|-------------------------5-7-----|-------5-3-2---------------------
G|-----------6-4-2-2-1-------------|-------------------4-6-7---------|-------------4-2-2---------------
D|---------------------4-2---------|-------------6-7-7---------------|-------------------6-4-2---------
A|-------------------------5-4-2---|-----4-5-7-9---------------------|-------------------------5-4-----
E|-------------------------------5-|-5-7-----------------------------|-----------------------------7-5-

http://www.guitartabcreator.com
Guitar Tab Creator is intended to store guitar tab created through the tool. It currently does not support in-line text editing. Any text you place in here will be lost. If you need to comment on your tab, please use the "Tab Notes" section located below.