Sound will begin in 5 seconds

[A] Major Scale - Diamond Pattern Exercise - (Part 1)

01234567891011121314151617181920212223
E
B
G
D
A
E
B
0 1 2 3 4 5 6 7 8 9 10 11 12 13 14 15 16 17 18 19 20 21 22 23
Song Science #1: How Pros Use 6 Chords to Write Hit Songs
(/) Slide Up  (\) Slide Down  (h) Hammer On  (p) Pull Off  (b) Bend (r) Release (v) Vibrato

Stave 1:

E|---------------------------------|-----------------------------4-5-|-5-4-------------------------4-5-
B|---------------------------------|-------------------------5-7-----|-----7-5-----------------5-7-----
G|---------------------------------|-------------------4-6-7---------|---------7-6-4-----4-6-7---------
D|-----------4-6-7-7-6-4-----------|-----------4-6-7-7---------------|---------------7-7---------------
A|-----4-5-7-------------7-5-4-----|-----4-5-7-----------------------|---------------------------------
E|-5-7-------------------------7-5-|-5-7-----------------------------|---------------------------------

Stave 2:

E|-5-4-----------------------------|---------------4-5---------------|---5-4---------------------------
B|-----7-5-------------------------|-----------5-7-------------------|-------7-5-----------------------
G|---------7-6-4-------------------|-----4-6-7-----------------------|-----------7-6-4-----------------
D|---------------7-7-6-4-----------|---7---------------7-6-4---------|-----------------7-6-4-----------
A|-----------------------7-5-4-----|-------------------------7-5-4---|-----------------------7-5-4-----
E|-----------------------------7-5-|-5-----------------------------7-|-5---------------------------7-5-

Stave 3:

E|---------------------------------|-------------------------------5-|-5-----------------------------5-
B|---------------------------------|---------------------------7-9---|---9-7---------------------7-9---
G|---------------------------------|---------------------6-7-9-------|-------9-7-6---------6-7-9-------
D|-------------6-7-7-6-------------|-------------6-7-7-9-------------|-------------9-7-7-9-------------
A|-----4-5-7-9---------9-7-5-4-----|-----4-5-7-9---------------------|---------------------------------
E|-5-7-------------------------7-5-|-5-7-----------------------------|---------------------------------

Stave 4:

E|-5-------------------------------|-----------------5---------------|---5-----------------------------
B|---9-7---------------------------|-------------7-9-----------------|-----9-7-------------------------
G|-------9-7-6---------------------|-------6-7-9---------------------|---------9-7-6-------------------
D|-------------9-7-7-6-------------|---7-9-------------7-6-----------|---------------9-7-6-------------
A|---------------------9-7-5-4-----|-----------------------9-7-5-4---|---------------------9-7-5-4-----
E|-----------------------------7-5-|-5-----------------------------7-|-5---------------------------7-5-

Stave 5:

E|-----------------------------4-5-|-5-------------------------------|-------------------------------5-
B|-------------------------5-7-----|---9-7---------------------------|---------------------------7-9---
G|-------------------4-6-7---------|-------9-7-6---------------------|---------------------6-7-9-------
D|-----------4-6-7-7---------------|-------------9-7-7-6-------------|-----------4-6-7-7-9-------------
A|-----4-5-7-----------------------|---------------------9-7-5-4-----|-----4-5-7-----------------------
E|-5-7-----------------------------|-----------------------------7-5-|-5-7-----------------------------

Stave 6:

E|-5-4-----------------------------|-----------------5---------------|-----------------------------4-5-
B|-----7-5-------------------------|-------------7-9-----------------|-------------------------5-7-----
G|---------7-6-4-------------------|-------6-7-9---------------------|-------------------4-6-7---------
D|---------------7-7-6-------------|---7-9-------------7-6-4---------|-------------6-7-7---------------
A|---------------------9-7-5-4-----|-------------------------7-5-4---|-----4-5-7-9---------------------
E|-----------------------------7-5-|-5-----------------------------7-|-5-7-----------------------------

http://www.guitartabcreator.com
Guitar Tab Creator is intended to store guitar tab created through the tool. It currently does not support in-line text editing. Any text you place in here will be lost. If you need to comment on your tab, please use the "Tab Notes" section located below.