Sound will begin in 5 seconds

[A] Major Scale - Diamond to Diamond Exercise - (Part 2)

01234567891011121314151617181920212223
E
B
G
D
A
E
B
0 1 2 3 4 5 6 7 8 9 10 11 12 13 14 15 16 17 18 19 20 21 22 23
Song Science #1: How Pros Use 6 Chords to Write Hit Songs
(/) Slide Up  (\) Slide Down  (h) Hammer On  (p) Pull Off  (b) Bend (r) Release (v) Vibrato

Stave 1:

E|----------------------------------------9-10-12-14-16-17-|-17-16-14-12-10-9----------------------------
B|--------------------------------9-10-12------------------|------------------12-10-10-9-----------------
G|---------------------------9-11--------------------------|-----------------------------11-9------------
D|-------------------9-11-12-------------------------------|----------------------------------12-11-9----
A|-------5-7-9-11-12---------------------------------------|------------------------------------------12-
E|-5-7-9---------------------------------------------------|---------------------------------------------

Stave 2:

E|-17-16-14-12-10-9----------------------------------------|---------------------9-10-12-14-16-17--------
B|------------------12-10-9--------------------------------|---------------10-12-------------------------
G|--------------------------11-9---------------------------|-------------9-------------------------------
D|-------------------------------12-11-9-------------------|----------11---------------------------------
A|---------------------------------------12-11-9-7-5-------|-----7-12-----------------------------12-7---
E|---------------------------------------------------9-7-5-|-5-9---------------------------------------5-

Stave 3:

E|---------------------------------------------------12-14-16-17-|-17-16-14-12-------------|-------------
B|---------------------------------------10-12-14-15-------------|-------------15-14-12-10-|-------------
G|-------------------------------9-11-13-------------------------|-------------------------|-------------
D|-------------------------11-12---------------------------------|-------------------------|-------------
A|----------------11-12-14---------------------------------------|-------------------------|--------12---
E|-5-7-9-10-12-14------------------------------------------------|-------------------------|-5-9-12----5-

Stave 4:

E|-17-16-14-12---------------------------------------------------|-------------12-14-16-17-|-------------
B|-------------15-14-12-10---------------------------------------|-10-12-14-15-------------|-------------
G|-------------------------13-11-9-------------------------------|-------------------------|-------------
D|---------------------------------12-11-------------------------|-------------------------|-------------
A|---------------------------------------14-12-11----------------|-------------------------|--------12---
E|------------------------------------------------14-12-10-9-7-5-|-------------------------|-5-9-12----5-

Stave 5:

E|-17-16-14-12-10-9----------------------------|------------------------------------12-14-16-17-|--------
B|------------------12-10-10-9-----------------|---------------------10-10-12-14-15-------------|--------
G|-----------------------------11-9------------|-------------9-11-13----------------------------|--------
D|----------------------------------12-11-9----|-------11-12------------------------------------|--------
A|------------------------------------------12-|-12-14------------------------------------------|---12---
E|---------------------------------------------|------------------------------------------------|-5----5-

Stave 6:

E|----------------------------------12-14-16-17-|-17-16-14-12-10-9------------------------------|--------
B|-----------------9-10-10-12-14-15-------------|------------------12-10-10---------------------|--------
G|------------9-11------------------------------|---------------------------13-11-9-------------|--------
D|----9-11-12-----------------------------------|-----------------------------------12-11-------|--------
A|-12-------------------------------------------|-----------------------------------------14-12-|---12---
E|----------------------------------------------|-----------------------------------------------|-5----5-

http://www.guitartabcreator.com
Guitar Tab Creator is intended to store guitar tab created through the tool. It currently does not support in-line text editing. Any text you place in here will be lost. If you need to comment on your tab, please use the "Tab Notes" section located below.