Sound will begin in 5 seconds

[A] Major Scale - Diamond to Diamond Exercise - (Part 1)

01234567891011121314151617181920212223
E
B
G
D
A
E
B
0 1 2 3 4 5 6 7 8 9 10 11 12 13 14 15 16 17 18 19 20 21 22 23
Song Science #1: How Pros Use 6 Chords to Write Hit Songs
(/) Slide Up  (\) Slide Down  (h) Hammer On  (p) Pull Off  (b) Bend (r) Release (v) Vibrato

Stave 1:

E|--------------------------------|--------------------------------|------------------------------------
B|-------------------------7-9-10-|-10-9-7-------------------------|-----10---------------10-----10-----
G|-------------------6-7-9--------|--------9-7-6-------------------|------------------6-9---------------
D|-------------6-7-9--------------|--------------9-7-6-------------|---7----7-------7----------7----7---
A|-------5-7-9--------------------|--------------------9-7-5-------|--------------7---------------------
E|-5-7-9--------------------------|--------------------------9-7-5-|-5--------5-9------------5--------5-

Stave 2:

E|--------------------------------|--------------------------------|------------------------------------
B|-10-9-7-------------------------|-------------------------7-9-10-|-----10---------------10-----10-----
G|--------9-7-6-------------------|-------------------6-7-9--------|------------------6-9---------------
D|--------------9-7-6-------------|-------------6-7-9--------------|---7----7-------7----------7----7---
A|--------------------9-7-5-------|-------5-7-9--------------------|--------------7---------------------
E|--------------------------9-7-5-|-5-7-9--------------------------|-5--------5-9------------5--------5-

Stave 3:

E|------------------------------------|------------------------------------|----------------------------
B|-------------------------------9-10-|-10-9-------------------------------|-----10----------------10---
G|------------------------7-9-11------|------11-9-7------------------------|---------------------9------
D|-----------------7-9-11-------------|-------------11-9-7-----------------|---7----7-------7-11--------
A|----------7-9-11--------------------|--------------------11-9-7----------|--------------7-------------
E|-5-7-9-10---------------------------|---------------------------10-9-7-5-|-5--------5-9-------------5-

Stave 4:

E|------------------------------------|------------------------------------|----------------------------
B|-10-9-------------------------------|-------------------------------9-10-|-----10----------------10---
G|------11-9-7------------------------|------------------------7-9-11------|---------------------9------
D|-------------11-9-7-----------------|-----------------7-9-11-------------|---7----7-------7-11--------
A|--------------------11-9-7----------|----------7-9-11--------------------|--------------7-------------
E|---------------------------10-9-7-5-|-5-7-9-10---------------------------|-5--------5-9-------------5-

Stave 5:

E|------------------------------------|------------------------------------|----------------------------
B|-------------------------------9-10-|-10-9-------------------------------|--------------10-------10---
G|------------------------7-9-11------|------11-9-7------------------------|------------9---------------
D|-------------6-7-7-9-11-------------|-------------11-9-7-7-6-------------|-------7-11------7---7------
A|-------5-7-9------------------------|------------------------9-7-5-------|-----7----------------------
E|-5-7-9------------------------------|------------------------------9-7-5-|-5-9---------------5------5-

Stave 6:

E|------------------------------------|------------------------------------|----------------------------
B|-----------------------------7-9-10-|-10-9-7-----------------------------|-------------10-------------
G|-----------------------6-7-9--------|--------9-7-6-----------------------|---------6-9----------------
D|-----------------7-7-9--------------|--------------9-7-7-----------------|-------7--------7---7-------
A|----------7-9-11--------------------|--------------------11-9-7----------|-----7----------------7-----
E|-5-7-9-10---------------------------|---------------------------10-9-7-5-|-5-9--------------5-----9-5-

http://www.guitartabcreator.com
Guitar Tab Creator is intended to store guitar tab created through the tool. It currently does not support in-line text editing. Any text you place in here will be lost. If you need to comment on your tab, please use the "Tab Notes" section located below.