Sound will begin in 5 seconds

first composition

01234567891011121314151617181920212223
E
B
G
D
A
E
B
0 1 2 3 4 5 6 7 8 9 10 11 12 13 14 15 16 17 18 19 20 21 22 23
Song Science #1: How Pros Use 6 Chords to Write Hit Songs
(/) Slide Up  (\) Slide Down  (h) Hammer On  (p) Pull Off  (b) Bend (r) Release (v) Vibrato

Stave 1:

E|--1--------4---------1--------4--2--1--
B|-----2--------4h5p4-----2--------------
G|--------3------------------3-----------
D|---------------------------------------
A|---------------------------------------
E|---------------------------------------

Stave 2:

E|--1-----------2-----------1-----------2-----------4--4h5--4-------------------4--
B|-----2-----2-----2-----2-----2-----2-----2-----2-------------4h5--7--4-----5-----
G|--------3-----------3-----------3-----------3---------------------------6--------
D|---------------------------------------------------------------------------------
A|---------------------------------------------------------------------------------
E|---------------------------------------------------------------------------------

Stave 3:

E|-----------------------------------------------------------------
B|--7--------------7-----------7--7--------------7-----------7-----
G|-----6--7--9--7-----6--7--9--------6--7--9--7-----6--7--9-----7--
D|-----------------------------------------------------------------
A|-----------------------------------------------------------------
E|-----------------------------------------------------------------

http://www.guitartabcreator.com
Guitar Tab Creator is intended to store guitar tab created through the tool. It currently does not support in-line text editing. Any text you place in here will be lost. If you need to comment on your tab, please use the "Tab Notes" section located below.