Sound will begin in 5 seconds

Seek and Destroy - Metallica

01234567891011121314151617181920212223
E
B
G
D
A
E
B
0 1 2 3 4 5 6 7 8 9 10 11 12 13 14 15 16 17 18 19 20 21 22 23
Song Science #1: How Pros Use 6 Chords to Write Hit Songs
(/) Slide Up  (\) Slide Down  (h) Hammer On  (p) Pull Off  (b) Bend (r) Release (v) Vibrato

Stave 1:

E|----------------------------------------------------
B|----------------------------------------------------
G|--------7h8--7--------------------------------5-----
D|---------------------7h8--7-------------5--------7--
A|--0--0------------0------------0--8--7-----7--------
E|----------------------------------------------------

Stave 2:

E|---------------------------
B|---------------------------
G|--0/9--7-----7-------------
D|----------9-----9--8--7\5--
A|---------------------------
E|---------------------------

Stave 3:

E|--------------------------------------------------------------
B|--------------------------------------------------------------
G|--------------------------------------------------------------
D|--------------5--7--5--7--------------------------------------
A|--------------5--7--5--7--------------------------7--5--------
E|--0--0--0--0--------------------------0--0--0--0--------7--6--

Stave 4:

E|------------------------------------------------------------
B|------------------------------------------------------------
G|------------------------------------------------------------
D|------------------------------------------------------5-----
A|------------------------------------------------7--6-----7--
E|--0--0--0--0--0--0--0--0------------0--0--0--0--------------

Stave 5:

E|--------------------------------------------
B|--------------------------------------------
G|--5-----------5--7--5-----------------------
D|--5-----------5--7--5-----------------------
A|-----0--0--0--------------------------------
E|--------------------------------------------

Stave 6:

E|--------------------------
B|--------------------------
G|--7--5--------------------
D|--------7--6--5-----------
A|-----------------7--6--5--
E|--------------------------

Stave 7:

E|-----------------------
B|-----------------------
G|--5-----------5--7--5--
D|--5-----------5--7--5--
A|-----0--0--0-----------
E|-----------------------

Stave 8:

E|----------------------------
B|----------------------------
G|--0/9--7-----7--------------
D|----------9-----9--8--7--5--
A|----------------------------
E|----------------------------

Stave 9:

E|----------------------------------------------------------------------
B|----------------------------------------------------------------------
G|--7------6------5------4----------------------------------------------
D|--5------4------3------2----------------------------------------------
A|----------------------------------------------------------------------
E|--------------------------0--0--0--0--0--0----0--0--0--0--0--0--0--0--

Stave 10:

E|-------------------------------------------------------------------------------------------------------
B|-------------------------------------------------------------------------------------------------------
G|----------------------------5-------------------------4------------------------------------------------
D|--5--------7--------7-------5--------7--------7-------4--------7--------7\0-------------3--2--0--------
A|--0--0--0-----0--0-----0-------0--0-----0--0-----0-------0--0-----0--0---------3--2--0-----------3--2--
E|-------------------------------------------------------------------------------------------------------

Stave 11:

E|--------12--15p12------12------15p12--17p12--15p12------12--15p12--17p12--15p12------12------12---------
B|--0/15-------------15-------------------------------15---------------------------15------15------15b17--
G|--------------------------------------------------------------------------------------------------------
D|--------------------------------------------------------------------------------------------------------
A|--------------------------------------------------------------------------------------------------------
E|--------------------------------------------------------------------------------------------------------

Stave 12:

E|-------------------------------------------------------------------------
B|--12--12--15p12------12--------------------------------------------------
G|-----------------14------14p11--14p11------------------------------------
D|---------------------------------------14--12------12--14b16r14p12-------
A|-----------------------------------------------14-------------------14v--
E|-------------------------------------------------------------------------

Stave 13:

E|--
B|--
G|--
D|--
A|--
E|--

http://www.guitartabcreator.com
Guitar Tab Creator is intended to store guitar tab created through the tool. It currently does not support in-line text editing. Any text you place in here will be lost. If you need to comment on your tab, please use the "Tab Notes" section located below.